ISO-10303-21;
HEADER;
FILE_DESCRIPTION (( 'STEP AP214' ),
    '1' );
FILE_NAME ('H1000-3000-1750.step',
    '2012-04-20T20:58:01',
    ( '' ),
    ( '' ),
    'SwSTEP 2.0',
    'SolidWorks 2012',
    '' );
FILE_SCHEMA (( 'AUTOMOTIVE_DESIGN' ));
ENDSEC;

DATA;
#1 = DIRECTION ( 'NONE',  ( 0.0000000000000000000, 0.0000000000000000000, 1.000000000000000000 ) ) ;
#2 = APPLICATION_PROTOCOL_DEFINITION ( 'draft international standard', 'automotive_design', 1998, #194 ) ;
#3 = CARTESIAN_POINT ( 'NONE',  ( 0.0000000000000000000, 0.0000000000000000000, 0.0000000000000000000 ) ) ;
#4 = DIRECTION ( 'NONE',  ( 0.0000000000000000000, 0.0000000000000000000, 1.000000000000000000 ) ) ;
#5 = CARTESIAN_POINT ( 'NONE',  ( 0.0000000000000000000, 0.0000000000000000000, 0.0000000000000000000 ) ) ;
#6 = CARTESIAN_POINT ( 'NONE',  ( -0.8499999999999999800, 0.0000000000000000000, 1.000000000000000000 ) ) ;
#7 = DIRECTION ( 'NONE',  ( 1.000000000000000000, 0.0000000000000000000, 0.0000000000000000000 ) ) ;
#8 =( NAMED_UNIT ( * ) SI_UNIT ( $, .STERADIAN. ) SOLID_ANGLE_UNIT ( ) );
#9 =( NAMED_UNIT ( * ) PLANE_ANGLE_UNIT ( ) SI_UNIT ( $, .RADIAN. ) );
#10 =( CONVERSION_BASED_UNIT ( 'INCH', #69 ) LENGTH_UNIT ( ) NAMED_UNIT ( #167 ) );
#11 =( LENGTH_UNIT ( ) NAMED_UNIT ( * ) SI_UNIT ( $, .METRE. ) );
#12 = PRESENTATION_STYLE_ASSIGNMENT (( #13 ) ) ;
#13 = SURFACE_STYLE_USAGE ( .BOTH. , #14 ) ;
#14 = SURFACE_SIDE_STYLE ('',( #15 ) ) ;
#15 = SURFACE_STYLE_FILL_AREA ( #16 ) ;
#16 = FILL_AREA_STYLE ('',( #17 ) ) ;
#17 = FILL_AREA_STYLE_COLOUR ( '', #211 ) ;
#18 = APPLICATION_PROTOCOL_DEFINITION ( 'draft international standard', 'automotive_design', 1998, #195 ) ;
#19 = SHAPE_DEFINITION_REPRESENTATION ( #171, #179 ) ;
#20 = CARTESIAN_POINT ( 'NONE',  ( 0.0000000000000000000, 0.0000000000000000000, 1.000000000000000000 ) ) ;
#21 = PRODUCT_CONTEXT ( 'NONE', #194, 'mechanical' ) ;
#22 = LINE ( 'NONE', #6, #83 ) ;
#23 = DIRECTION ( 'NONE',  ( 1.000000000000000000, 0.0000000000000000000, 0.0000000000000000000 ) ) ;
#24 =( NAMED_UNIT ( * ) SI_UNIT ( $, .STERADIAN. ) SOLID_ANGLE_UNIT ( ) );
#25 =( NAMED_UNIT ( * ) PLANE_ANGLE_UNIT ( ) SI_UNIT ( $, .RADIAN. ) );
#26 =( CONVERSION_BASED_UNIT ( 'INCH', #63 ) LENGTH_UNIT ( ) NAMED_UNIT ( #165 ) );
#27 =( LENGTH_UNIT ( ) NAMED_UNIT ( * ) SI_UNIT ( $, .METRE. ) );
#28 = DIRECTION ( 'NONE',  ( 1.000000000000000000, 0.0000000000000000000, 0.0000000000000000000 ) ) ;
#29 = DIRECTION ( 'NONE',  ( -1.000000000000000000, 0.0000000000000000000, 0.0000000000000000000 ) ) ;
#30 = DIRECTION ( 'NONE',  ( -0.0000000000000000000, -0.0000000000000000000, -1.000000000000000000 ) ) ;
#31 = DIRECTION ( 'NONE',  ( 0.0000000000000000000, 0.0000000000000000000, 1.000000000000000000 ) ) ;
#32 = CARTESIAN_POINT ( 'NONE',  ( 0.0000000000000000000, 0.0000000000000000000, 1.000000000000000000 ) ) ;
#33 = DIRECTION ( 'NONE',  ( -1.000000000000000000, 0.0000000000000000000, 0.0000000000000000000 ) ) ;
#34 = DIRECTION ( 'NONE',  ( -0.0000000000000000000, -0.0000000000000000000, -1.000000000000000000 ) ) ;
#35 = CARTESIAN_POINT ( 'NONE',  ( 0.0000000000000000000, 0.0000000000000000000, 1.000000000000000000 ) ) ;
#36 = DIRECTION ( 'NONE',  ( -0.0000000000000000000, -0.0000000000000000000, -1.000000000000000000 ) ) ;
#37 = CARTESIAN_POINT ( 'NONE',  ( -1.500000000000000200, 0.0000000000000000000, 1.000000000000000000 ) ) ;
#38 = LINE ( 'NONE', #37, #72 ) ;
#39 = DIRECTION ( 'NONE',  ( 1.000000000000000000, 0.0000000000000000000, -0.0000000000000000000 ) ) ;
#40 = DIRECTION ( 'NONE',  ( 0.0000000000000000000, 0.0000000000000000000, 1.000000000000000000 ) ) ;
#41 = CARTESIAN_POINT ( 'NONE',  ( 0.0000000000000000000, 0.0000000000000000000, 1.000000000000000000 ) ) ;
#42 = PLANE ( 'NONE',  #73 ) ;
#43 = DIRECTION ( 'NONE',  ( 1.000000000000000000, 0.0000000000000000000, -0.0000000000000000000 ) ) ;
#44 = DIRECTION ( 'NONE',  ( 0.0000000000000000000, 0.0000000000000000000, 1.000000000000000000 ) ) ;
#45 = CARTESIAN_POINT ( 'NONE',  ( 0.0000000000000000000, 0.0000000000000000000, 0.0000000000000000000 ) ) ;
#46 = PLANE ( 'NONE',  #77 ) ;
#47 = DIRECTION ( 'NONE',  ( -1.000000000000000000, 0.0000000000000000000, 0.0000000000000000000 ) ) ;
#48 = DIRECTION ( 'NONE',  ( -0.0000000000000000000, -0.0000000000000000000, -1.000000000000000000 ) ) ;
#49 = CARTESIAN_POINT ( 'NONE',  ( 0.0000000000000000000, 0.0000000000000000000, 1.000000000000000000 ) ) ;
#50 = DIRECTION ( 'NONE',  ( -1.000000000000000000, 0.0000000000000000000, 0.0000000000000000000 ) ) ;
#51 = DIRECTION ( 'NONE',  ( -0.0000000000000000000, -0.0000000000000000000, -1.000000000000000000 ) ) ;
#52 = DIRECTION ( 'NONE',  ( -0.0000000000000000000, -0.0000000000000000000, -1.000000000000000000 ) ) ;
#53 = CARTESIAN_POINT ( 'NONE',  ( 1.500000000000000200, 1.836970198721030200E-016, 1.000000000000000000 ) ) ;
#54 = LINE ( 'NONE', #53, #70 ) ;
#55 = DIRECTION ( 'NONE',  ( -0.0000000000000000000, -0.0000000000000000000, -1.000000000000000000 ) ) ;
#56 = CARTESIAN_POINT ( 'NONE',  ( 0.8499999999999999800, 1.040949779275250100E-016, 1.000000000000000000 ) ) ;
#57 = LINE ( 'NONE', #56, #79 ) ;
#58 = DIRECTION ( 'NONE',  ( -0.0000000000000000000, -0.0000000000000000000, -1.000000000000000000 ) ) ;
#59 = AXIS2_PLACEMENT_3D ( 'NONE', #90, #89, #88 ) ;
#60 = MECHANICAL_DESIGN_GEOMETRIC_PRESENTATION_REPRESENTATION (  '', ( #62 ), #170 ) ;
#61 = PRESENTATION_LAYER_ASSIGNMENT (  '', '', ( #62 ) ) ;
#62 = STYLED_ITEM ( 'NONE', ( #12 ), #179 ) ;
#63 = LENGTH_MEASURE_WITH_UNIT ( LENGTH_MEASURE( 0.02539999999999999900 ), #27 );
#64 = FACE_OUTER_BOUND ( 'NONE', #155, .T. ) ;
#65 = FACE_OUTER_BOUND ( 'NONE', #154, .T. ) ;
#66 = AXIS2_PLACEMENT_3D ( 'NONE', #49, #48, #47 ) ;
#67 = CYLINDRICAL_SURFACE ( 'NONE', #68, 0.8499999999999999800 ) ;
#68 = AXIS2_PLACEMENT_3D ( 'NONE', #32, #30, #29 ) ;
#69 = LENGTH_MEASURE_WITH_UNIT ( LENGTH_MEASURE( 0.02539999999999999900 ), #11 );
#70 = VECTOR ( 'NONE', #52, 39.37007874015748100 ) ;
#71 = CYLINDRICAL_SURFACE ( 'NONE', #76, 1.500000000000000200 ) ;
#72 = VECTOR ( 'NONE', #36, 39.37007874015748100 ) ;
#73 = AXIS2_PLACEMENT_3D ( 'NONE', #41, #40, #39 ) ;
#74 = FACE_OUTER_BOUND ( 'NONE', #151, .T. ) ;
#75 = FACE_OUTER_BOUND ( 'NONE', #152, .T. ) ;
#76 = AXIS2_PLACEMENT_3D ( 'NONE', #35, #34, #33 ) ;
#77 = AXIS2_PLACEMENT_3D ( 'NONE', #45, #44, #43 ) ;
#78 = CYLINDRICAL_SURFACE ( 'NONE', #85, 0.8499999999999999800 ) ;
#79 = VECTOR ( 'NONE', #55, 39.37007874015748100 ) ;
#80 = FACE_BOUND ( 'NONE', #156, .T. ) ;
#81 = CYLINDRICAL_SURFACE ( 'NONE', #66, 1.500000000000000200 ) ;
#82 = AXIS2_PLACEMENT_3D ( 'NONE', #87, #31, #7 ) ;
#83 = VECTOR ( 'NONE', #58, 39.37007874015748100 ) ;
#84 = FACE_BOUND ( 'NONE', #153, .T. ) ;
#85 = AXIS2_PLACEMENT_3D ( 'NONE', #20, #51, #50 ) ;
#86 = AXIS2_PLACEMENT_3D ( 'NONE', #5, #4, #23 ) ;
#87 = CARTESIAN_POINT ( 'NONE',  ( 0.0000000000000000000, 0.0000000000000000000, 1.000000000000000000 ) ) ;
#88 = DIRECTION ( 'NONE',  ( 1.000000000000000000, 0.0000000000000000000, 0.0000000000000000000 ) ) ;
#89 = DIRECTION ( 'NONE',  ( 0.0000000000000000000, 0.0000000000000000000, 1.000000000000000000 ) ) ;
#90 = CARTESIAN_POINT ( 'NONE',  ( 0.0000000000000000000, 0.0000000000000000000, 0.0000000000000000000 ) ) ;
#91 = DIRECTION ( 'NONE',  ( 1.000000000000000000, 0.0000000000000000000, 0.0000000000000000000 ) ) ;
#92 = DIRECTION ( 'NONE',  ( 0.0000000000000000000, 0.0000000000000000000, 1.000000000000000000 ) ) ;
#93 = CARTESIAN_POINT ( 'NONE',  ( 0.0000000000000000000, 0.0000000000000000000, 0.0000000000000000000 ) ) ;
#94 = DIRECTION ( 'NONE',  ( 1.000000000000000000, 0.0000000000000000000, 0.0000000000000000000 ) ) ;
#95 = DIRECTION ( 'NONE',  ( 0.0000000000000000000, 0.0000000000000000000, 1.000000000000000000 ) ) ;
#96 = CARTESIAN_POINT ( 'NONE',  ( 0.0000000000000000000, 0.0000000000000000000, 1.000000000000000000 ) ) ;
#97 = DIRECTION ( 'NONE',  ( 1.000000000000000000, 0.0000000000000000000, 0.0000000000000000000 ) ) ;
#98 = DIRECTION ( 'NONE',  ( 0.0000000000000000000, 0.0000000000000000000, 1.000000000000000000 ) ) ;
#99 = CARTESIAN_POINT ( 'NONE',  ( 0.0000000000000000000, 0.0000000000000000000, 1.000000000000000000 ) ) ;
#100 = DIRECTION ( 'NONE',  ( 1.000000000000000000, 0.0000000000000000000, 0.0000000000000000000 ) ) ;
#101 = DIRECTION ( 'NONE',  ( 0.0000000000000000000, 0.0000000000000000000, 1.000000000000000000 ) ) ;
#102 = CARTESIAN_POINT ( 'NONE',  ( 0.0000000000000000000, 0.0000000000000000000, 0.0000000000000000000 ) ) ;
#103 = DIRECTION ( 'NONE',  ( 1.000000000000000000, 0.0000000000000000000, 0.0000000000000000000 ) ) ;
#104 = DIRECTION ( 'NONE',  ( 0.0000000000000000000, 0.0000000000000000000, 1.000000000000000000 ) ) ;
#105 = ORIENTED_EDGE ( 'NONE', *, *, #199, .F. ) ;
#106 = CARTESIAN_POINT ( 'NONE',  ( 0.0000000000000000000, 0.0000000000000000000, 1.000000000000000000 ) ) ;
#107 = ORIENTED_EDGE ( 'NONE', *, *, #176, .T. ) ;
#108 = ORIENTED_EDGE ( 'NONE', *, *, #189, .T. ) ;
#109 =( NAMED_UNIT ( * ) SI_UNIT ( $, .STERADIAN. ) SOLID_ANGLE_UNIT ( ) );
#110 =( CONVERSION_BASED_UNIT ( 'INCH', #218 ) LENGTH_UNIT ( ) NAMED_UNIT ( #164 ) );
#111 =( LENGTH_UNIT ( ) NAMED_UNIT ( * ) SI_UNIT ( $, .METRE. ) );
#112 = PRESENTATION_STYLE_ASSIGNMENT (( #113 ) ) ;
#113 = SURFACE_STYLE_USAGE ( .BOTH. , #114 ) ;
#114 = SURFACE_SIDE_STYLE ('',( #116 ) ) ;
#115 =( NAMED_UNIT ( * ) PLANE_ANGLE_UNIT ( ) SI_UNIT ( $, .RADIAN. ) );
#116 = SURFACE_STYLE_FILL_AREA ( #117 ) ;
#117 = FILL_AREA_STYLE ('',( #118 ) ) ;
#118 = FILL_AREA_STYLE_COLOUR ( '', #206 ) ;
#119 = CARTESIAN_POINT ( 'NONE',  ( 1.500000000000000200, 1.836970198721030200E-016, 1.000000000000000000 ) ) ;
#120 = CARTESIAN_POINT ( 'NONE',  ( 0.8499999999999999800, 1.040949779275250100E-016, 0.0000000000000000000 ) ) ;
#121 = CARTESIAN_POINT ( 'NONE',  ( -0.8499999999999999800, 0.0000000000000000000, 0.0000000000000000000 ) ) ;
#122 = CARTESIAN_POINT ( 'NONE',  ( -1.500000000000000200, 0.0000000000000000000, 1.000000000000000000 ) ) ;
#123 = CARTESIAN_POINT ( 'NONE',  ( 0.8499999999999999800, 1.040949779275250100E-016, 1.000000000000000000 ) ) ;
#124 = CARTESIAN_POINT ( 'NONE',  ( -0.8499999999999999800, 0.0000000000000000000, 1.000000000000000000 ) ) ;
#125 = CARTESIAN_POINT ( 'NONE',  ( -1.500000000000000200, 0.0000000000000000000, 0.0000000000000000000 ) ) ;
#126 = CARTESIAN_POINT ( 'NONE',  ( 1.500000000000000200, 1.836970198721030200E-016, 0.0000000000000000000 ) ) ;
#127 = ORIENTED_EDGE ( 'NONE', *, *, #174, .F. ) ;
#128 = ORIENTED_EDGE ( 'NONE', *, *, #187, .F. ) ;
#129 = ORIENTED_EDGE ( 'NONE', *, *, #188, .T. ) ;
#130 = ORIENTED_EDGE ( 'NONE', *, *, #186, .F. ) ;
#131 = ORIENTED_EDGE ( 'NONE', *, *, #185, .T. ) ;
#132 = ORIENTED_EDGE ( 'NONE', *, *, #184, .F. ) ;
#133 = ORIENTED_EDGE ( 'NONE', *, *, #199, .T. ) ;
#134 = ORIENTED_EDGE ( 'NONE', *, *, #181, .F. ) ;
#135 = ORIENTED_EDGE ( 'NONE', *, *, #183, .T. ) ;
#136 = ORIENTED_EDGE ( 'NONE', *, *, #184, .T. ) ;
#137 = ORIENTED_EDGE ( 'NONE', *, *, #176, .F. ) ;
#138 = ORIENTED_EDGE ( 'NONE', *, *, #189, .F. ) ;
#139 = ORIENTED_EDGE ( 'NONE', *, *, #183, .F. ) ;
#140 = ORIENTED_EDGE ( 'NONE', *, *, #186, .T. ) ;
#141 = VERTEX_POINT ( 'NONE', #126 ) ;
#142 = VERTEX_POINT ( 'NONE', #125 ) ;
#143 = VERTEX_POINT ( 'NONE', #124 ) ;
#144 = VERTEX_POINT ( 'NONE', #123 ) ;
#145 = VERTEX_POINT ( 'NONE', #122 ) ;
#146 = VERTEX_POINT ( 'NONE', #121 ) ;
#147 = VERTEX_POINT ( 'NONE', #120 ) ;
#148 = VERTEX_POINT ( 'NONE', #119 ) ;
#149 = ORIENTED_EDGE ( 'NONE', *, *, #187, .T. ) ;
#150 = ORIENTED_EDGE ( 'NONE', *, *, #182, .T. ) ;
#151 = EDGE_LOOP ( 'NONE', ( #131, #129, #130, #128 ) ) ;
#152 = EDGE_LOOP ( 'NONE', ( #127, #108, #107, #105 ) ) ;
#153 = EDGE_LOOP ( 'NONE', ( #162, #159 ) ) ;
#154 = EDGE_LOOP ( 'NONE', ( #139, #137 ) ) ;
#155 = EDGE_LOOP ( 'NONE', ( #163, #160 ) ) ;
#156 = EDGE_LOOP ( 'NONE', ( #140, #136 ) ) ;
#157 = EDGE_LOOP ( 'NONE', ( #138, #134, #133, #135 ) ) ;
#158 = EDGE_LOOP ( 'NONE', ( #161, #150, #149, #132 ) ) ;
#159 = ORIENTED_EDGE ( 'NONE', *, *, #182, .F. ) ;
#160 = ORIENTED_EDGE ( 'NONE', *, *, #174, .T. ) ;
#161 = ORIENTED_EDGE ( 'NONE', *, *, #188, .F. ) ;
#162 = ORIENTED_EDGE ( 'NONE', *, *, #185, .F. ) ;
#163 = ORIENTED_EDGE ( 'NONE', *, *, #181, .T. ) ;
#164 = DIMENSIONAL_EXPONENTS ( 1.000000000000000000, 0.0000000000000000000, 0.0000000000000000000, 0.0000000000000000000, 0.0000000000000000000, 0.0000000000000000000, 0.0000000000000000000 ) ;
#165 = DIMENSIONAL_EXPONENTS ( 1.000000000000000000, 0.0000000000000000000, 0.0000000000000000000, 0.0000000000000000000, 0.0000000000000000000, 0.0000000000000000000, 0.0000000000000000000 ) ;
#166 = PRODUCT ( 'H1000-3000-1750', 'H1000-3000-1750', '', ( #21 ) ) ;
#167 = DIMENSIONAL_EXPONENTS ( 1.000000000000000000, 0.0000000000000000000, 0.0000000000000000000, 0.0000000000000000000, 0.0000000000000000000, 0.0000000000000000000, 0.0000000000000000000 ) ;
#168 =( GEOMETRIC_REPRESENTATION_CONTEXT ( 3 ) GLOBAL_UNCERTAINTY_ASSIGNED_CONTEXT ( ( #180 ) ) GLOBAL_UNIT_ASSIGNED_CONTEXT ( ( #110, #115, #109 ) ) REPRESENTATION_CONTEXT ( 'NONE', 'WORKASPACE' ) );
#169 =( GEOMETRIC_REPRESENTATION_CONTEXT ( 3 ) GLOBAL_UNCERTAINTY_ASSIGNED_CONTEXT ( ( #177 ) ) GLOBAL_UNIT_ASSIGNED_CONTEXT ( ( #26, #25, #24 ) ) REPRESENTATION_CONTEXT ( 'NONE', 'WORKASPACE' ) );
#170 =( GEOMETRIC_REPRESENTATION_CONTEXT ( 3 ) GLOBAL_UNCERTAINTY_ASSIGNED_CONTEXT ( ( #178 ) ) GLOBAL_UNIT_ASSIGNED_CONTEXT ( ( #10, #9, #8 ) ) REPRESENTATION_CONTEXT ( 'NONE', 'WORKASPACE' ) );
#171 = PRODUCT_DEFINITION_SHAPE ( 'NONE', 'NONE',  #175 ) ;
#172 = MANIFOLD_SOLID_BREP ( 'Boss-Extrude1', #212 ) ;
#173 = PRODUCT_DEFINITION_CONTEXT ( 'detailed design', #195, 'design' ) ;
#174 = EDGE_CURVE ( 'NONE', #148, #145, #202, .T. ) ;
#175 = PRODUCT_DEFINITION ( 'UNKNOWN', '', #196, #173 ) ;
#176 = EDGE_CURVE ( 'NONE', #141, #142, #203, .T. ) ;
#177 = UNCERTAINTY_MEASURE_WITH_UNIT (LENGTH_MEASURE( 1.000000000000000100E-005 ), #26, 'distance_accuracy_value', 'NONE');
#178 = UNCERTAINTY_MEASURE_WITH_UNIT (LENGTH_MEASURE( 1.000000000000000100E-005 ), #10, 'distance_accuracy_value', 'NONE');
#179 = ADVANCED_BREP_SHAPE_REPRESENTATION ( 'H1000-3000-1750', ( #172, #197 ), #169 ) ;
#180 = UNCERTAINTY_MEASURE_WITH_UNIT (LENGTH_MEASURE( 1.000000000000000100E-005 ), #110, 'distance_accuracy_value', 'NONE');
#181 = EDGE_CURVE ( 'NONE', #145, #148, #204, .T. ) ;
#182 = EDGE_CURVE ( 'NONE', #144, #143, #205, .T. ) ;
#183 = EDGE_CURVE ( 'NONE', #142, #141, #207, .T. ) ;
#184 = EDGE_CURVE ( 'NONE', #147, #146, #208, .T. ) ;
#185 = EDGE_CURVE ( 'NONE', #143, #144, #209, .T. ) ;
#186 = EDGE_CURVE ( 'NONE', #146, #147, #210, .T. ) ;
#187 = EDGE_CURVE ( 'NONE', #143, #146, #22, .T. ) ;
#188 = EDGE_CURVE ( 'NONE', #144, #147, #57, .T. ) ;
#189 = EDGE_CURVE ( 'NONE', #148, #141, #54, .T. ) ;
#190 = ADVANCED_FACE ( 'NONE', ( #221 ), #78, .F. ) ;
#191 = ADVANCED_FACE ( 'NONE', ( #213 ), #81, .T. ) ;
#192 = ADVANCED_FACE ( 'NONE', ( #65, #80 ), #46, .F. ) ;
#193 = ADVANCED_FACE ( 'NONE', ( #64, #84 ), #42, .T. ) ;
#194 = APPLICATION_CONTEXT ( 'automotive_design' ) ;
#195 = APPLICATION_CONTEXT ( 'automotive_design' ) ;
#196 = PRODUCT_DEFINITION_FORMATION_WITH_SPECIFIED_SOURCE ( 'ANY', '', #166, .NOT_KNOWN. ) ;
#197 = AXIS2_PLACEMENT_3D ( 'NONE', #3, #1, #28 ) ;
#198 = PRODUCT_RELATED_PRODUCT_CATEGORY ( 'part', '', ( #166 ) ) ;
#199 = EDGE_CURVE ( 'NONE', #145, #142, #38, .T. ) ;
#200 = ADVANCED_FACE ( 'NONE', ( #75 ), #71, .T. ) ;
#201 = ADVANCED_FACE ( 'NONE', ( #74 ), #67, .F. ) ;
#202 = CIRCLE ( 'NONE', #220, 1.500000000000000200 ) ;
#203 = CIRCLE ( 'NONE', #214, 1.500000000000000200 ) ;
#204 = CIRCLE ( 'NONE', #217, 1.500000000000000200 ) ;
#205 = CIRCLE ( 'NONE', #223, 0.8499999999999999800 ) ;
#206 = COLOUR_RGB ( '',0.5686274509803921400, 0.5686274509803921400, 0.5882352941176470800 ) ;
#207 = CIRCLE ( 'NONE', #216, 1.500000000000000200 ) ;
#208 = CIRCLE ( 'NONE', #59, 0.8499999999999999800 ) ;
#209 = CIRCLE ( 'NONE', #82, 0.8499999999999999800 ) ;
#210 = CIRCLE ( 'NONE', #86, 0.8499999999999999800 ) ;
#211 = COLOUR_RGB ( '',0.5686274509803921400, 0.5686274509803921400, 0.5882352941176470800 ) ;
#212 = CLOSED_SHELL ( 'NONE', ( #201, #200, #193, #192, #191, #190 ) ) ;
#213 = FACE_OUTER_BOUND ( 'NONE', #157, .T. ) ;
#214 = AXIS2_PLACEMENT_3D ( 'NONE', #102, #101, #100 ) ;
#215 = PRESENTATION_LAYER_ASSIGNMENT (  '', '', ( #222 ) ) ;
#216 = AXIS2_PLACEMENT_3D ( 'NONE', #93, #92, #91 ) ;
#217 = AXIS2_PLACEMENT_3D ( 'NONE', #99, #98, #97 ) ;
#218 = LENGTH_MEASURE_WITH_UNIT ( LENGTH_MEASURE( 0.02539999999999999900 ), #111 );
#219 = MECHANICAL_DESIGN_GEOMETRIC_PRESENTATION_REPRESENTATION (  '', ( #222 ), #168 ) ;
#220 = AXIS2_PLACEMENT_3D ( 'NONE', #106, #104, #103 ) ;
#221 = FACE_OUTER_BOUND ( 'NONE', #158, .T. ) ;
#222 = STYLED_ITEM ( 'NONE', ( #112 ), #172 ) ;
#223 = AXIS2_PLACEMENT_3D ( 'NONE', #96, #95, #94 ) ;
ENDSEC;
END-ISO-10303-21;
