ISO-10303-21;
HEADER;
FILE_DESCRIPTION (( 'STEP AP214' ),
    '1' );
FILE_NAME ('H118-240-063-DM.step',
    '2012-04-20T20:58:08',
    ( '' ),
    ( '' ),
    'SwSTEP 2.0',
    'SolidWorks 2012',
    '' );
FILE_SCHEMA (( 'AUTOMOTIVE_DESIGN' ));
ENDSEC;

DATA;
#1 = AXIS2_PLACEMENT_3D ( 'NONE', #36, #37, #35 ) ;
#2 = AXIS2_PLACEMENT_3D ( 'NONE', #90, #89, #88 ) ;
#3 = LENGTH_MEASURE_WITH_UNIT ( LENGTH_MEASURE( 0.02539999999999999900 ), #41 );
#4 = MECHANICAL_DESIGN_GEOMETRIC_PRESENTATION_REPRESENTATION (  '', ( #6 ), #202 ) ;
#5 = PRESENTATION_LAYER_ASSIGNMENT (  '', '', ( #6 ) ) ;
#6 = STYLED_ITEM ( 'NONE', ( #42 ), #203 ) ;
#7 = LENGTH_MEASURE_WITH_UNIT ( LENGTH_MEASURE( 0.02539999999999999900 ), #113 );
#8 = AXIS2_PLACEMENT_3D ( 'NONE', #106, #32, #52 ) ;
#9 = AXIS2_PLACEMENT_3D ( 'NONE', #64, #63, #62 ) ;
#10 = AXIS2_PLACEMENT_3D ( 'NONE', #60, #59, #58 ) ;
#11 = AXIS2_PLACEMENT_3D ( 'NONE', #68, #67, #66 ) ;
#12 = AXIS2_PLACEMENT_3D ( 'NONE', #87, #86, #85 ) ;
#13 = AXIS2_PLACEMENT_3D ( 'NONE', #51, #50, #30 ) ;
#14 = AXIS2_PLACEMENT_3D ( 'NONE', #109, #108, #107 ) ;
#15 = LENGTH_MEASURE_WITH_UNIT ( LENGTH_MEASURE( 0.02539999999999999900 ), #57 );
#16 = FACE_OUTER_BOUND ( 'NONE', #174, .T. ) ;
#17 = VECTOR ( 'NONE', #33, 39.37007874015748100 ) ;
#18 = FACE_BOUND ( 'NONE', #114, .T. ) ;
#19 = FACE_BOUND ( 'NONE', #177, .T. ) ;
#20 = CYLINDRICAL_SURFACE ( 'NONE', #21, 0.1200787401574803100 ) ;
#21 = AXIS2_PLACEMENT_3D ( 'NONE', #72, #71, #70 ) ;
#22 = FACE_OUTER_BOUND ( 'NONE', #178, .T. ) ;
#23 = CYLINDRICAL_SURFACE ( 'NONE', #26, 0.03149606299212598400 ) ;
#24 = FACE_OUTER_BOUND ( 'NONE', #115, .T. ) ;
#25 = VECTOR ( 'NONE', #78, 39.37007874015748100 ) ;
#26 = AXIS2_PLACEMENT_3D ( 'NONE', #75, #74, #73 ) ;
#27 = AXIS2_PLACEMENT_3D ( 'NONE', #84, #77, #76 ) ;
#28 = VECTOR ( 'NONE', #81, 39.37007874015748100 ) ;
#29 = FACE_OUTER_BOUND ( 'NONE', #179, .T. ) ;
#30 = DIRECTION ( 'NONE',  ( 1.000000000000000000, 0.0000000000000000000, 0.0000000000000000000 ) ) ;
#31 = CARTESIAN_POINT ( 'NONE',  ( -0.1200787401574803100, 0.0000000000000000000, 0.1181102362204724500 ) ) ;
#32 = DIRECTION ( 'NONE',  ( 0.0000000000000000000, 0.0000000000000000000, 1.000000000000000000 ) ) ;
#33 = DIRECTION ( 'NONE',  ( -0.0000000000000000000, -0.0000000000000000000, -1.000000000000000000 ) ) ;
#34 = APPLICATION_PROTOCOL_DEFINITION ( 'draft international standard', 'automotive_design', 1998, #199 ) ;
#35 = DIRECTION ( 'NONE',  ( 1.000000000000000000, 0.0000000000000000000, 0.0000000000000000000 ) ) ;
#36 = CARTESIAN_POINT ( 'NONE',  ( 0.0000000000000000000, 0.0000000000000000000, 0.0000000000000000000 ) ) ;
#37 = DIRECTION ( 'NONE',  ( 0.0000000000000000000, 0.0000000000000000000, 1.000000000000000000 ) ) ;
#38 =( NAMED_UNIT ( * ) SI_UNIT ( $, .STERADIAN. ) SOLID_ANGLE_UNIT ( ) );
#39 =( NAMED_UNIT ( * ) PLANE_ANGLE_UNIT ( ) SI_UNIT ( $, .RADIAN. ) );
#40 =( CONVERSION_BASED_UNIT ( 'INCH', #3 ) LENGTH_UNIT ( ) NAMED_UNIT ( #210 ) );
#41 =( LENGTH_UNIT ( ) NAMED_UNIT ( * ) SI_UNIT ( $, .METRE. ) );
#42 = PRESENTATION_STYLE_ASSIGNMENT (( #43 ) ) ;
#43 = SURFACE_STYLE_USAGE ( .BOTH. , #44 ) ;
#44 = SURFACE_SIDE_STYLE ('',( #45 ) ) ;
#45 = SURFACE_STYLE_FILL_AREA ( #47 ) ;
#46 = APPLICATION_PROTOCOL_DEFINITION ( 'draft international standard', 'automotive_design', 1998, #198 ) ;
#47 = FILL_AREA_STYLE ('',( #48 ) ) ;
#48 = FILL_AREA_STYLE_COLOUR ( '', #104 ) ;
#49 = PRODUCT_CONTEXT ( 'NONE', #198, 'mechanical' ) ;
#50 = DIRECTION ( 'NONE',  ( 0.0000000000000000000, 0.0000000000000000000, 1.000000000000000000 ) ) ;
#51 = CARTESIAN_POINT ( 'NONE',  ( 0.0000000000000000000, 0.0000000000000000000, 0.1181102362204724500 ) ) ;
#52 = DIRECTION ( 'NONE',  ( 1.000000000000000000, 0.0000000000000000000, 0.0000000000000000000 ) ) ;
#53 = SHAPE_DEFINITION_REPRESENTATION ( #183, #203 ) ;
#54 =( NAMED_UNIT ( * ) SI_UNIT ( $, .STERADIAN. ) SOLID_ANGLE_UNIT ( ) );
#55 =( NAMED_UNIT ( * ) PLANE_ANGLE_UNIT ( ) SI_UNIT ( $, .RADIAN. ) );
#56 =( CONVERSION_BASED_UNIT ( 'INCH', #15 ) LENGTH_UNIT ( ) NAMED_UNIT ( #209 ) );
#57 =( LENGTH_UNIT ( ) NAMED_UNIT ( * ) SI_UNIT ( $, .METRE. ) );
#58 = DIRECTION ( 'NONE',  ( 1.000000000000000000, 0.0000000000000000000, 0.0000000000000000000 ) ) ;
#59 = DIRECTION ( 'NONE',  ( 0.0000000000000000000, 0.0000000000000000000, 1.000000000000000000 ) ) ;
#60 = CARTESIAN_POINT ( 'NONE',  ( 0.0000000000000000000, 0.0000000000000000000, 0.1181102362204724500 ) ) ;
#61 = LINE ( 'NONE', #31, #17 ) ;
#62 = DIRECTION ( 'NONE',  ( 1.000000000000000000, 0.0000000000000000000, -0.0000000000000000000 ) ) ;
#63 = DIRECTION ( 'NONE',  ( 0.0000000000000000000, 0.0000000000000000000, 1.000000000000000000 ) ) ;
#64 = CARTESIAN_POINT ( 'NONE',  ( 0.0000000000000000000, 0.0000000000000000000, 0.1181102362204724500 ) ) ;
#65 = PLANE ( 'NONE',  #9 ) ;
#66 = DIRECTION ( 'NONE',  ( 1.000000000000000000, 0.0000000000000000000, -0.0000000000000000000 ) ) ;
#67 = DIRECTION ( 'NONE',  ( 0.0000000000000000000, 0.0000000000000000000, 1.000000000000000000 ) ) ;
#68 = CARTESIAN_POINT ( 'NONE',  ( 0.0000000000000000000, 0.0000000000000000000, 0.0000000000000000000 ) ) ;
#69 = PLANE ( 'NONE',  #11 ) ;
#70 = DIRECTION ( 'NONE',  ( -1.000000000000000000, 0.0000000000000000000, 0.0000000000000000000 ) ) ;
#71 = DIRECTION ( 'NONE',  ( -0.0000000000000000000, -0.0000000000000000000, -1.000000000000000000 ) ) ;
#72 = CARTESIAN_POINT ( 'NONE',  ( 0.0000000000000000000, 0.0000000000000000000, 0.1181102362204724500 ) ) ;
#73 = DIRECTION ( 'NONE',  ( -1.000000000000000000, 0.0000000000000000000, 0.0000000000000000000 ) ) ;
#74 = DIRECTION ( 'NONE',  ( -0.0000000000000000000, -0.0000000000000000000, -1.000000000000000000 ) ) ;
#75 = CARTESIAN_POINT ( 'NONE',  ( 0.0000000000000000000, 0.0000000000000000000, 0.1181102362204724500 ) ) ;
#76 = DIRECTION ( 'NONE',  ( 1.000000000000000000, 0.0000000000000000000, 0.0000000000000000000 ) ) ;
#77 = DIRECTION ( 'NONE',  ( 0.0000000000000000000, 0.0000000000000000000, 1.000000000000000000 ) ) ;
#78 = DIRECTION ( 'NONE',  ( -0.0000000000000000000, -0.0000000000000000000, -1.000000000000000000 ) ) ;
#79 = CARTESIAN_POINT ( 'NONE',  ( 0.1200787401574803100, 1.470540447795050000E-017, 0.1181102362204724500 ) ) ;
#80 = LINE ( 'NONE', #79, #25 ) ;
#81 = DIRECTION ( 'NONE',  ( -0.0000000000000000000, -0.0000000000000000000, -1.000000000000000000 ) ) ;
#82 = CARTESIAN_POINT ( 'NONE',  ( -0.03149606299212598400, 0.0000000000000000000, 0.1181102362204724500 ) ) ;
#83 = LINE ( 'NONE', #82, #28 ) ;
#84 = CARTESIAN_POINT ( 'NONE',  ( 0.0000000000000000000, 0.0000000000000000000, 0.1181102362204724500 ) ) ;
#85 = DIRECTION ( 'NONE',  ( 1.000000000000000000, 0.0000000000000000000, 0.0000000000000000000 ) ) ;
#86 = DIRECTION ( 'NONE',  ( 0.0000000000000000000, 0.0000000000000000000, 1.000000000000000000 ) ) ;
#87 = CARTESIAN_POINT ( 'NONE',  ( 0.0000000000000000000, 0.0000000000000000000, 0.0000000000000000000 ) ) ;
#88 = DIRECTION ( 'NONE',  ( 1.000000000000000000, 0.0000000000000000000, 0.0000000000000000000 ) ) ;
#89 = DIRECTION ( 'NONE',  ( 0.0000000000000000000, 0.0000000000000000000, 1.000000000000000000 ) ) ;
#90 = CARTESIAN_POINT ( 'NONE',  ( 0.0000000000000000000, 0.0000000000000000000, 0.0000000000000000000 ) ) ;
#91 = EDGE_CURVE ( 'NONE', #160, #162, #92, .T. ) ;
#92 = CIRCLE ( 'NONE', #214, 0.03149606299212598400 ) ;
#93 = EDGE_CURVE ( 'NONE', #158, #160, #137, .T. ) ;
#94 = ADVANCED_FACE ( 'NONE', ( #216 ), #212, .T. ) ;
#95 = ADVANCED_FACE ( 'NONE', ( #219 ), #220, .F. ) ;
#96 = CIRCLE ( 'NONE', #2, 0.1200787401574803100 ) ;
#97 = CIRCLE ( 'NONE', #12, 0.03149606299212598400 ) ;
#98 = CIRCLE ( 'NONE', #14, 0.1200787401574803100 ) ;
#99 = CIRCLE ( 'NONE', #8, 0.1200787401574803100 ) ;
#100 = CIRCLE ( 'NONE', #13, 0.03149606299212598400 ) ;
#101 = COLOUR_RGB ( '',0.5686274509803921400, 0.5686274509803921400, 0.5882352941176470800 ) ;
#102 = CIRCLE ( 'NONE', #27, 0.1200787401574803100 ) ;
#103 = CIRCLE ( 'NONE', #10, 0.03149606299212598400 ) ;
#104 = COLOUR_RGB ( '',0.5686274509803921400, 0.5686274509803921400, 0.5882352941176470800 ) ;
#105 = PRODUCT_DEFINITION ( 'UNKNOWN', '', #180, #182 ) ;
#106 = CARTESIAN_POINT ( 'NONE',  ( 0.0000000000000000000, 0.0000000000000000000, 0.1181102362204724500 ) ) ;
#107 = DIRECTION ( 'NONE',  ( 1.000000000000000000, 0.0000000000000000000, 0.0000000000000000000 ) ) ;
#108 = DIRECTION ( 'NONE',  ( 0.0000000000000000000, 0.0000000000000000000, 1.000000000000000000 ) ) ;
#109 = CARTESIAN_POINT ( 'NONE',  ( 0.0000000000000000000, 0.0000000000000000000, 0.0000000000000000000 ) ) ;
#110 =( NAMED_UNIT ( * ) SI_UNIT ( $, .STERADIAN. ) SOLID_ANGLE_UNIT ( ) );
#111 =( NAMED_UNIT ( * ) PLANE_ANGLE_UNIT ( ) SI_UNIT ( $, .RADIAN. ) );
#112 =( CONVERSION_BASED_UNIT ( 'INCH', #7 ) LENGTH_UNIT ( ) NAMED_UNIT ( #184 ) );
#113 =( LENGTH_UNIT ( ) NAMED_UNIT ( * ) SI_UNIT ( $, .METRE. ) );
#114 = EDGE_LOOP ( 'NONE', ( #149, #172 ) ) ;
#115 = EDGE_LOOP ( 'NONE', ( #170, #169, #168, #171 ) ) ;
#116 = PRESENTATION_STYLE_ASSIGNMENT (( #120 ) ) ;
#117 = FILL_AREA_STYLE ('',( #119 ) ) ;
#118 = SURFACE_STYLE_FILL_AREA ( #117 ) ;
#119 = FILL_AREA_STYLE_COLOUR ( '', #101 ) ;
#120 = SURFACE_STYLE_USAGE ( .BOTH. , #126 ) ;
#121 = CARTESIAN_POINT ( 'NONE',  ( -0.03149606299212598400, 0.0000000000000000000, 0.0000000000000000000 ) ) ;
#122 = CARTESIAN_POINT ( 'NONE',  ( 0.1200787401574803100, 1.470540447795050000E-017, 0.1181102362204724500 ) ) ;
#123 = CARTESIAN_POINT ( 'NONE',  ( 0.03149606299212598400, 3.857155272905049800E-018, 0.0000000000000000000 ) ) ;
#124 = CARTESIAN_POINT ( 'NONE',  ( -0.1200787401574803100, 0.0000000000000000000, 0.0000000000000000000 ) ) ;
#125 = CARTESIAN_POINT ( 'NONE',  ( -0.03149606299212598400, 0.0000000000000000000, 0.1181102362204724500 ) ) ;
#126 = SURFACE_SIDE_STYLE ('',( #118 ) ) ;
#127 = CARTESIAN_POINT ( 'NONE',  ( -0.1200787401574803100, 0.0000000000000000000, 0.1181102362204724500 ) ) ;
#128 = CARTESIAN_POINT ( 'NONE',  ( 0.03149606299212598400, 3.857155272905049800E-018, 0.1181102362204724500 ) ) ;
#129 = CARTESIAN_POINT ( 'NONE',  ( 0.1200787401574803100, 1.470540447795050000E-017, 0.0000000000000000000 ) ) ;
#130 = DIRECTION ( 'NONE',  ( -1.000000000000000000, 0.0000000000000000000, 0.0000000000000000000 ) ) ;
#131 = DIRECTION ( 'NONE',  ( -0.0000000000000000000, -0.0000000000000000000, -1.000000000000000000 ) ) ;
#132 = CARTESIAN_POINT ( 'NONE',  ( 0.0000000000000000000, 0.0000000000000000000, 0.1181102362204724500 ) ) ;
#133 = DIRECTION ( 'NONE',  ( -1.000000000000000000, 0.0000000000000000000, 0.0000000000000000000 ) ) ;
#134 = DIRECTION ( 'NONE',  ( -0.0000000000000000000, -0.0000000000000000000, -1.000000000000000000 ) ) ;
#135 = DIRECTION ( 'NONE',  ( -0.0000000000000000000, -0.0000000000000000000, -1.000000000000000000 ) ) ;
#136 = CARTESIAN_POINT ( 'NONE',  ( 0.03149606299212598400, 3.857155272905049800E-018, 0.1181102362204724500 ) ) ;
#137 = LINE ( 'NONE', #136, #217 ) ;
#138 = CARTESIAN_POINT ( 'NONE',  ( 0.0000000000000000000, 0.0000000000000000000, 0.1181102362204724500 ) ) ;
#139 = DIRECTION ( 'NONE',  ( 1.000000000000000000, 0.0000000000000000000, 0.0000000000000000000 ) ) ;
#140 = DIRECTION ( 'NONE',  ( 0.0000000000000000000, 0.0000000000000000000, 1.000000000000000000 ) ) ;
#141 = CARTESIAN_POINT ( 'NONE',  ( 0.0000000000000000000, 0.0000000000000000000, 0.0000000000000000000 ) ) ;
#142 = ORIENTED_EDGE ( 'NONE', *, *, #186, .F. ) ;
#143 = ORIENTED_EDGE ( 'NONE', *, *, #192, .T. ) ;
#144 = ORIENTED_EDGE ( 'NONE', *, *, #185, .T. ) ;
#145 = ORIENTED_EDGE ( 'NONE', *, *, #193, .F. ) ;
#146 = ORIENTED_EDGE ( 'NONE', *, *, #191, .F. ) ;
#147 = ORIENTED_EDGE ( 'NONE', *, *, #93, .T. ) ;
#148 = ORIENTED_EDGE ( 'NONE', *, *, #190, .F. ) ;
#149 = ORIENTED_EDGE ( 'NONE', *, *, #190, .T. ) ;
#150 = ORIENTED_EDGE ( 'NONE', *, *, #188, .F. ) ;
#151 = ORIENTED_EDGE ( 'NONE', *, *, #193, .T. ) ;
#152 = ORIENTED_EDGE ( 'NONE', *, *, #189, .F. ) ;
#153 = ORIENTED_EDGE ( 'NONE', *, *, #207, .F. ) ;
#154 = ORIENTED_EDGE ( 'NONE', *, *, #187, .T. ) ;
#155 = VERTEX_POINT ( 'NONE', #129 ) ;
#156 = VERTEX_POINT ( 'NONE', #124 ) ;
#157 = VERTEX_POINT ( 'NONE', #125 ) ;
#158 = VERTEX_POINT ( 'NONE', #128 ) ;
#159 = VERTEX_POINT ( 'NONE', #127 ) ;
#160 = VERTEX_POINT ( 'NONE', #123 ) ;
#161 = VERTEX_POINT ( 'NONE', #122 ) ;
#162 = VERTEX_POINT ( 'NONE', #121 ) ;
#163 = ORIENTED_EDGE ( 'NONE', *, *, #207, .T. ) ;
#164 = ORIENTED_EDGE ( 'NONE', *, *, #191, .T. ) ;
#165 = ORIENTED_EDGE ( 'NONE', *, *, #188, .T. ) ;
#166 = ORIENTED_EDGE ( 'NONE', *, *, #93, .F. ) ;
#167 = ORIENTED_EDGE ( 'NONE', *, *, #91, .F. ) ;
#168 = ORIENTED_EDGE ( 'NONE', *, *, #186, .T. ) ;
#169 = ORIENTED_EDGE ( 'NONE', *, *, #187, .F. ) ;
#170 = ORIENTED_EDGE ( 'NONE', *, *, #192, .F. ) ;
#171 = ORIENTED_EDGE ( 'NONE', *, *, #189, .T. ) ;
#172 = ORIENTED_EDGE ( 'NONE', *, *, #91, .T. ) ;
#173 = ORIENTED_EDGE ( 'NONE', *, *, #185, .F. ) ;
#174 = EDGE_LOOP ( 'NONE', ( #154, #151 ) ) ;
#175 = EDGE_LOOP ( 'NONE', ( #163, #147, #148, #146 ) ) ;
#176 = EDGE_LOOP ( 'NONE', ( #145, #143, #144, #142 ) ) ;
#177 = EDGE_LOOP ( 'NONE', ( #153, #150 ) ) ;
#178 = EDGE_LOOP ( 'NONE', ( #152, #173 ) ) ;
#179 = EDGE_LOOP ( 'NONE', ( #166, #165, #164, #167 ) ) ;
#180 = PRODUCT_DEFINITION_FORMATION_WITH_SPECIFIED_SOURCE ( 'ANY', '', #211, .NOT_KNOWN. ) ;
#181 = MANIFOLD_SOLID_BREP ( 'Boss-Extrude1', #213 ) ;
#182 = PRODUCT_DEFINITION_CONTEXT ( 'detailed design', #199, 'design' ) ;
#183 = PRODUCT_DEFINITION_SHAPE ( 'NONE', 'NONE',  #105 ) ;
#184 = DIMENSIONAL_EXPONENTS ( 1.000000000000000000, 0.0000000000000000000, 0.0000000000000000000, 0.0000000000000000000, 0.0000000000000000000, 0.0000000000000000000, 0.0000000000000000000 ) ;
#185 = EDGE_CURVE ( 'NONE', #155, #156, #98, .T. ) ;
#186 = EDGE_CURVE ( 'NONE', #159, #156, #61, .T. ) ;
#187 = EDGE_CURVE ( 'NONE', #159, #161, #99, .T. ) ;
#188 = EDGE_CURVE ( 'NONE', #158, #157, #100, .T. ) ;
#189 = EDGE_CURVE ( 'NONE', #156, #155, #96, .T. ) ;
#190 = EDGE_CURVE ( 'NONE', #162, #160, #97, .T. ) ;
#191 = EDGE_CURVE ( 'NONE', #157, #162, #83, .T. ) ;
#192 = EDGE_CURVE ( 'NONE', #161, #155, #80, .T. ) ;
#193 = EDGE_CURVE ( 'NONE', #161, #159, #102, .T. ) ;
#194 = ADVANCED_FACE ( 'NONE', ( #29 ), #23, .F. ) ;
#195 = ADVANCED_FACE ( 'NONE', ( #24 ), #20, .T. ) ;
#196 = ADVANCED_FACE ( 'NONE', ( #22, #18 ), #69, .F. ) ;
#197 = ADVANCED_FACE ( 'NONE', ( #16, #19 ), #65, .T. ) ;
#198 = APPLICATION_CONTEXT ( 'automotive_design' ) ;
#199 = APPLICATION_CONTEXT ( 'automotive_design' ) ;
#200 =( GEOMETRIC_REPRESENTATION_CONTEXT ( 3 ) GLOBAL_UNCERTAINTY_ASSIGNED_CONTEXT ( ( #206 ) ) GLOBAL_UNIT_ASSIGNED_CONTEXT ( ( #112, #111, #110 ) ) REPRESENTATION_CONTEXT ( 'NONE', 'WORKASPACE' ) );
#201 =( GEOMETRIC_REPRESENTATION_CONTEXT ( 3 ) GLOBAL_UNCERTAINTY_ASSIGNED_CONTEXT ( ( #204 ) ) GLOBAL_UNIT_ASSIGNED_CONTEXT ( ( #56, #55, #54 ) ) REPRESENTATION_CONTEXT ( 'NONE', 'WORKASPACE' ) );
#202 =( GEOMETRIC_REPRESENTATION_CONTEXT ( 3 ) GLOBAL_UNCERTAINTY_ASSIGNED_CONTEXT ( ( #205 ) ) GLOBAL_UNIT_ASSIGNED_CONTEXT ( ( #40, #39, #38 ) ) REPRESENTATION_CONTEXT ( 'NONE', 'WORKASPACE' ) );
#203 = ADVANCED_BREP_SHAPE_REPRESENTATION ( 'H118-240-063-DM', ( #181, #1 ), #201 ) ;
#204 = UNCERTAINTY_MEASURE_WITH_UNIT (LENGTH_MEASURE( 1.000000000000000100E-005 ), #56, 'distance_accuracy_value', 'NONE');
#205 = UNCERTAINTY_MEASURE_WITH_UNIT (LENGTH_MEASURE( 1.000000000000000100E-005 ), #40, 'distance_accuracy_value', 'NONE');
#206 = UNCERTAINTY_MEASURE_WITH_UNIT (LENGTH_MEASURE( 1.000000000000000100E-005 ), #112, 'distance_accuracy_value', 'NONE');
#207 = EDGE_CURVE ( 'NONE', #157, #158, #103, .T. ) ;
#208 = PRODUCT_RELATED_PRODUCT_CATEGORY ( 'part', '', ( #211 ) ) ;
#209 = DIMENSIONAL_EXPONENTS ( 1.000000000000000000, 0.0000000000000000000, 0.0000000000000000000, 0.0000000000000000000, 0.0000000000000000000, 0.0000000000000000000, 0.0000000000000000000 ) ;
#210 = DIMENSIONAL_EXPONENTS ( 1.000000000000000000, 0.0000000000000000000, 0.0000000000000000000, 0.0000000000000000000, 0.0000000000000000000, 0.0000000000000000000, 0.0000000000000000000 ) ;
#211 = PRODUCT ( 'H118-240-063-DM', 'H118-240-063-DM', '', ( #49 ) ) ;
#212 = CYLINDRICAL_SURFACE ( 'NONE', #222, 0.1200787401574803100 ) ;
#213 = CLOSED_SHELL ( 'NONE', ( #95, #94, #197, #196, #195, #194 ) ) ;
#214 = AXIS2_PLACEMENT_3D ( 'NONE', #141, #140, #139 ) ;
#215 = MECHANICAL_DESIGN_GEOMETRIC_PRESENTATION_REPRESENTATION (  '', ( #223 ), #200 ) ;
#216 = FACE_OUTER_BOUND ( 'NONE', #176, .T. ) ;
#217 = VECTOR ( 'NONE', #135, 39.37007874015748100 ) ;
#218 = AXIS2_PLACEMENT_3D ( 'NONE', #132, #131, #130 ) ;
#219 = FACE_OUTER_BOUND ( 'NONE', #175, .T. ) ;
#220 = CYLINDRICAL_SURFACE ( 'NONE', #218, 0.03149606299212598400 ) ;
#221 = PRESENTATION_LAYER_ASSIGNMENT (  '', '', ( #223 ) ) ;
#222 = AXIS2_PLACEMENT_3D ( 'NONE', #138, #134, #133 ) ;
#223 = STYLED_ITEM ( 'NONE', ( #116 ), #181 ) ;
ENDSEC;
END-ISO-10303-21;
