ISO-10303-21;
HEADER;
FILE_DESCRIPTION (( 'STEP AP214' ),
    '1' );
FILE_NAME ('H125-500-256.step',
    '2012-04-20T20:58:15',
    ( '' ),
    ( '' ),
    'SwSTEP 2.0',
    'SolidWorks 2012',
    '' );
FILE_SCHEMA (( 'AUTOMOTIVE_DESIGN' ));
ENDSEC;

DATA;
#1 = UNCERTAINTY_MEASURE_WITH_UNIT (LENGTH_MEASURE( 1.000000000000000100E-005 ), #59, 'distance_accuracy_value', 'NONE');
#2 = ADVANCED_BREP_SHAPE_REPRESENTATION ( 'H125-500-256', ( #171, #202 ), #203 ) ;
#3 = UNCERTAINTY_MEASURE_WITH_UNIT (LENGTH_MEASURE( 1.000000000000000100E-005 ), #114, 'distance_accuracy_value', 'NONE');
#4 = UNCERTAINTY_MEASURE_WITH_UNIT (LENGTH_MEASURE( 1.000000000000000100E-005 ), #44, 'distance_accuracy_value', 'NONE');
#5 = VECTOR ( 'NONE', #61, 39.37007874015748100 ) ;
#6 = VECTOR ( 'NONE', #40, 39.37007874015748100 ) ;
#7 = VECTOR ( 'NONE', #64, 39.37007874015748100 ) ;
#8 = AXIS2_PLACEMENT_3D ( 'NONE', #100, #99, #98 ) ;
#9 = AXIS2_PLACEMENT_3D ( 'NONE', #71, #70, #69 ) ;
#10 = AXIS2_PLACEMENT_3D ( 'NONE', #74, #73, #72 ) ;
#11 = LENGTH_MEASURE_WITH_UNIT ( LENGTH_MEASURE( 0.02539999999999999900 ), #65 );
#12 = AXIS2_PLACEMENT_3D ( 'NONE', #97, #39, #57 ) ;
#13 = CYLINDRICAL_SURFACE ( 'NONE', #14, 0.1279999999999999500 ) ;
#14 = AXIS2_PLACEMENT_3D ( 'NONE', #80, #79, #78 ) ;
#15 = AXIS2_PLACEMENT_3D ( 'NONE', #68, #60, #58 ) ;
#16 = CYLINDRICAL_SURFACE ( 'NONE', #21, 0.2500000000000001100 ) ;
#17 = AXIS2_PLACEMENT_3D ( 'NONE', #86, #85, #84 ) ;
#18 = AXIS2_PLACEMENT_3D ( 'NONE', #77, #76, #75 ) ;
#19 = FACE_OUTER_BOUND ( 'NONE', #148, .T. ) ;
#20 = AXIS2_PLACEMENT_3D ( 'NONE', #103, #102, #101 ) ;
#21 = AXIS2_PLACEMENT_3D ( 'NONE', #83, #82, #81 ) ;
#22 = AXIS2_PLACEMENT_3D ( 'NONE', #90, #89, #88 ) ;
#23 = FACE_OUTER_BOUND ( 'NONE', #147, .T. ) ;
#24 = FACE_OUTER_BOUND ( 'NONE', #146, .T. ) ;
#25 = FACE_BOUND ( 'NONE', #152, .T. ) ;
#26 = FACE_BOUND ( 'NONE', #149, .T. ) ;
#27 = CYLINDRICAL_SURFACE ( 'NONE', #28, 0.2500000000000001100 ) ;
#28 = AXIS2_PLACEMENT_3D ( 'NONE', #94, #93, #92 ) ;
#29 = FACE_OUTER_BOUND ( 'NONE', #150, .T. ) ;
#30 = CYLINDRICAL_SURFACE ( 'NONE', #31, 0.1279999999999999500 ) ;
#31 = AXIS2_PLACEMENT_3D ( 'NONE', #55, #53, #95 ) ;
#32 = LINE ( 'NONE', #41, #6 ) ;
#33 = DIRECTION ( 'NONE',  ( 1.000000000000000000, 0.0000000000000000000, 0.0000000000000000000 ) ) ;
#34 = APPLICATION_PROTOCOL_DEFINITION ( 'draft international standard', 'automotive_design', 1998, #173 ) ;
#35 = DIRECTION ( 'NONE',  ( 0.0000000000000000000, 0.0000000000000000000, 1.000000000000000000 ) ) ;
#36 = CARTESIAN_POINT ( 'NONE',  ( 0.0000000000000000000, 0.0000000000000000000, 0.0000000000000000000 ) ) ;
#37 = APPLICATION_PROTOCOL_DEFINITION ( 'draft international standard', 'automotive_design', 1998, #96 ) ;
#38 = PRODUCT_CONTEXT ( 'NONE', #173, 'mechanical' ) ;
#39 = DIRECTION ( 'NONE',  ( 0.0000000000000000000, 0.0000000000000000000, 1.000000000000000000 ) ) ;
#40 = DIRECTION ( 'NONE',  ( -0.0000000000000000000, -0.0000000000000000000, -1.000000000000000000 ) ) ;
#41 = CARTESIAN_POINT ( 'NONE',  ( 0.1279999999999999500, 1.567547902908611400E-017, 0.1250000000000000000 ) ) ;
#42 =( NAMED_UNIT ( * ) SI_UNIT ( $, .STERADIAN. ) SOLID_ANGLE_UNIT ( ) );
#43 =( NAMED_UNIT ( * ) PLANE_ANGLE_UNIT ( ) SI_UNIT ( $, .RADIAN. ) );
#44 =( CONVERSION_BASED_UNIT ( 'INCH', #198 ) LENGTH_UNIT ( ) NAMED_UNIT ( #212 ) );
#45 =( LENGTH_UNIT ( ) NAMED_UNIT ( * ) SI_UNIT ( $, .METRE. ) );
#46 = PRESENTATION_STYLE_ASSIGNMENT (( #47 ) ) ;
#47 = SURFACE_STYLE_USAGE ( .BOTH. , #48 ) ;
#48 = SURFACE_SIDE_STYLE ('',( #49 ) ) ;
#49 = SURFACE_STYLE_FILL_AREA ( #50 ) ;
#50 = FILL_AREA_STYLE ('',( #51 ) ) ;
#51 = FILL_AREA_STYLE_COLOUR ( '', #182 ) ;
#52 = SHAPE_DEFINITION_REPRESENTATION ( #170, #2 ) ;
#53 = DIRECTION ( 'NONE',  ( -0.0000000000000000000, -0.0000000000000000000, -1.000000000000000000 ) ) ;
#54 =( NAMED_UNIT ( * ) SI_UNIT ( $, .STERADIAN. ) SOLID_ANGLE_UNIT ( ) );
#55 = CARTESIAN_POINT ( 'NONE',  ( 0.0000000000000000000, 0.0000000000000000000, 0.1250000000000000000 ) ) ;
#56 =( NAMED_UNIT ( * ) PLANE_ANGLE_UNIT ( ) SI_UNIT ( $, .RADIAN. ) );
#57 = DIRECTION ( 'NONE',  ( 1.000000000000000000, 0.0000000000000000000, 0.0000000000000000000 ) ) ;
#58 = DIRECTION ( 'NONE',  ( 1.000000000000000000, 0.0000000000000000000, 0.0000000000000000000 ) ) ;
#59 =( CONVERSION_BASED_UNIT ( 'INCH', #11 ) LENGTH_UNIT ( ) NAMED_UNIT ( #213 ) );
#60 = DIRECTION ( 'NONE',  ( 0.0000000000000000000, 0.0000000000000000000, 1.000000000000000000 ) ) ;
#61 = DIRECTION ( 'NONE',  ( -0.0000000000000000000, -0.0000000000000000000, -1.000000000000000000 ) ) ;
#62 = CARTESIAN_POINT ( 'NONE',  ( 0.2500000000000001100, 3.061616997868384300E-017, 0.1250000000000000000 ) ) ;
#63 = LINE ( 'NONE', #62, #5 ) ;
#64 = DIRECTION ( 'NONE',  ( -0.0000000000000000000, -0.0000000000000000000, -1.000000000000000000 ) ) ;
#65 =( LENGTH_UNIT ( ) NAMED_UNIT ( * ) SI_UNIT ( $, .METRE. ) );
#66 = CARTESIAN_POINT ( 'NONE',  ( -0.1279999999999999500, 0.0000000000000000000, 0.1250000000000000000 ) ) ;
#67 = LINE ( 'NONE', #66, #7 ) ;
#68 = CARTESIAN_POINT ( 'NONE',  ( 0.0000000000000000000, 0.0000000000000000000, 0.1250000000000000000 ) ) ;
#69 = DIRECTION ( 'NONE',  ( 1.000000000000000000, 0.0000000000000000000, 0.0000000000000000000 ) ) ;
#70 = DIRECTION ( 'NONE',  ( 0.0000000000000000000, 0.0000000000000000000, 1.000000000000000000 ) ) ;
#71 = CARTESIAN_POINT ( 'NONE',  ( 0.0000000000000000000, 0.0000000000000000000, 0.0000000000000000000 ) ) ;
#72 = DIRECTION ( 'NONE',  ( 1.000000000000000000, 0.0000000000000000000, 0.0000000000000000000 ) ) ;
#73 = DIRECTION ( 'NONE',  ( 0.0000000000000000000, 0.0000000000000000000, 1.000000000000000000 ) ) ;
#74 = CARTESIAN_POINT ( 'NONE',  ( 0.0000000000000000000, 0.0000000000000000000, 0.0000000000000000000 ) ) ;
#75 = DIRECTION ( 'NONE',  ( 1.000000000000000000, 0.0000000000000000000, 0.0000000000000000000 ) ) ;
#76 = DIRECTION ( 'NONE',  ( 0.0000000000000000000, 0.0000000000000000000, 1.000000000000000000 ) ) ;
#77 = CARTESIAN_POINT ( 'NONE',  ( 0.0000000000000000000, 0.0000000000000000000, 0.0000000000000000000 ) ) ;
#78 = DIRECTION ( 'NONE',  ( -1.000000000000000000, 0.0000000000000000000, 0.0000000000000000000 ) ) ;
#79 = DIRECTION ( 'NONE',  ( -0.0000000000000000000, -0.0000000000000000000, -1.000000000000000000 ) ) ;
#80 = CARTESIAN_POINT ( 'NONE',  ( 0.0000000000000000000, 0.0000000000000000000, 0.1250000000000000000 ) ) ;
#81 = DIRECTION ( 'NONE',  ( -1.000000000000000000, 0.0000000000000000000, 0.0000000000000000000 ) ) ;
#82 = DIRECTION ( 'NONE',  ( -0.0000000000000000000, -0.0000000000000000000, -1.000000000000000000 ) ) ;
#83 = CARTESIAN_POINT ( 'NONE',  ( 0.0000000000000000000, 0.0000000000000000000, 0.1250000000000000000 ) ) ;
#84 = DIRECTION ( 'NONE',  ( 1.000000000000000000, 0.0000000000000000000, -0.0000000000000000000 ) ) ;
#85 = DIRECTION ( 'NONE',  ( 0.0000000000000000000, 0.0000000000000000000, 1.000000000000000000 ) ) ;
#86 = CARTESIAN_POINT ( 'NONE',  ( 0.0000000000000000000, 0.0000000000000000000, 0.1250000000000000000 ) ) ;
#87 = PLANE ( 'NONE',  #17 ) ;
#88 = DIRECTION ( 'NONE',  ( 1.000000000000000000, 0.0000000000000000000, -0.0000000000000000000 ) ) ;
#89 = DIRECTION ( 'NONE',  ( 0.0000000000000000000, 0.0000000000000000000, 1.000000000000000000 ) ) ;
#90 = CARTESIAN_POINT ( 'NONE',  ( 0.0000000000000000000, 0.0000000000000000000, 0.0000000000000000000 ) ) ;
#91 = PLANE ( 'NONE',  #22 ) ;
#92 = DIRECTION ( 'NONE',  ( -1.000000000000000000, 0.0000000000000000000, 0.0000000000000000000 ) ) ;
#93 = DIRECTION ( 'NONE',  ( -0.0000000000000000000, -0.0000000000000000000, -1.000000000000000000 ) ) ;
#94 = CARTESIAN_POINT ( 'NONE',  ( 0.0000000000000000000, 0.0000000000000000000, 0.1250000000000000000 ) ) ;
#95 = DIRECTION ( 'NONE',  ( -1.000000000000000000, 0.0000000000000000000, 0.0000000000000000000 ) ) ;
#96 = APPLICATION_CONTEXT ( 'automotive_design' ) ;
#97 = CARTESIAN_POINT ( 'NONE',  ( 0.0000000000000000000, 0.0000000000000000000, 0.1250000000000000000 ) ) ;
#98 = DIRECTION ( 'NONE',  ( 1.000000000000000000, 0.0000000000000000000, 0.0000000000000000000 ) ) ;
#99 = DIRECTION ( 'NONE',  ( 0.0000000000000000000, 0.0000000000000000000, 1.000000000000000000 ) ) ;
#100 = CARTESIAN_POINT ( 'NONE',  ( 0.0000000000000000000, 0.0000000000000000000, 0.0000000000000000000 ) ) ;
#101 = DIRECTION ( 'NONE',  ( 1.000000000000000000, 0.0000000000000000000, 0.0000000000000000000 ) ) ;
#102 = DIRECTION ( 'NONE',  ( 0.0000000000000000000, 0.0000000000000000000, 1.000000000000000000 ) ) ;
#103 = CARTESIAN_POINT ( 'NONE',  ( 0.0000000000000000000, 0.0000000000000000000, 0.1250000000000000000 ) ) ;
#104 = DIRECTION ( 'NONE',  ( 1.000000000000000000, 0.0000000000000000000, 0.0000000000000000000 ) ) ;
#105 = DIRECTION ( 'NONE',  ( 0.0000000000000000000, 0.0000000000000000000, 1.000000000000000000 ) ) ;
#106 = CARTESIAN_POINT ( 'NONE',  ( 0.0000000000000000000, 0.0000000000000000000, 0.1250000000000000000 ) ) ;
#107 = DIRECTION ( 'NONE',  ( -0.0000000000000000000, -0.0000000000000000000, -1.000000000000000000 ) ) ;
#108 = CARTESIAN_POINT ( 'NONE',  ( -0.2500000000000001100, 0.0000000000000000000, 0.1250000000000000000 ) ) ;
#109 = LINE ( 'NONE', #108, #222 ) ;
#110 =( NAMED_UNIT ( * ) SI_UNIT ( $, .STERADIAN. ) SOLID_ANGLE_UNIT ( ) );
#111 =( NAMED_UNIT ( * ) PLANE_ANGLE_UNIT ( ) SI_UNIT ( $, .RADIAN. ) );
#112 = ORIENTED_EDGE ( 'NONE', *, *, #206, .T. ) ;
#113 = ORIENTED_EDGE ( 'NONE', *, *, #188, .T. ) ;
#114 =( CONVERSION_BASED_UNIT ( 'INCH', #215 ) LENGTH_UNIT ( ) NAMED_UNIT ( #172 ) );
#115 =( LENGTH_UNIT ( ) NAMED_UNIT ( * ) SI_UNIT ( $, .METRE. ) );
#116 = PRESENTATION_STYLE_ASSIGNMENT (( #117 ) ) ;
#117 = SURFACE_STYLE_USAGE ( .BOTH. , #118 ) ;
#118 = SURFACE_SIDE_STYLE ('',( #119 ) ) ;
#119 = SURFACE_STYLE_FILL_AREA ( #120 ) ;
#120 = FILL_AREA_STYLE ('',( #121 ) ) ;
#121 = FILL_AREA_STYLE_COLOUR ( '', #177 ) ;
#122 = CARTESIAN_POINT ( 'NONE',  ( 0.2500000000000001100, 3.061616997868384300E-017, 0.1250000000000000000 ) ) ;
#123 = CARTESIAN_POINT ( 'NONE',  ( 0.1279999999999999500, 1.567547902908611400E-017, 0.0000000000000000000 ) ) ;
#124 = CARTESIAN_POINT ( 'NONE',  ( -0.1279999999999999500, 0.0000000000000000000, 0.0000000000000000000 ) ) ;
#125 = CARTESIAN_POINT ( 'NONE',  ( 0.1279999999999999500, 1.567547902908611400E-017, 0.1250000000000000000 ) ) ;
#126 = CARTESIAN_POINT ( 'NONE',  ( -0.2500000000000001100, 0.0000000000000000000, 0.1250000000000000000 ) ) ;
#127 = CARTESIAN_POINT ( 'NONE',  ( -0.1279999999999999500, 0.0000000000000000000, 0.1250000000000000000 ) ) ;
#128 = CARTESIAN_POINT ( 'NONE',  ( -0.2500000000000001100, 0.0000000000000000000, 0.0000000000000000000 ) ) ;
#129 = CARTESIAN_POINT ( 'NONE',  ( 0.2500000000000001100, 3.061616997868384300E-017, 0.0000000000000000000 ) ) ;
#130 = ORIENTED_EDGE ( 'NONE', *, *, #190, .T. ) ;
#131 = VERTEX_POINT ( 'NONE', #129 ) ;
#132 = VERTEX_POINT ( 'NONE', #128 ) ;
#133 = VERTEX_POINT ( 'NONE', #127 ) ;
#134 = VERTEX_POINT ( 'NONE', #126 ) ;
#135 = VERTEX_POINT ( 'NONE', #125 ) ;
#136 = VERTEX_POINT ( 'NONE', #124 ) ;
#137 = VERTEX_POINT ( 'NONE', #123 ) ;
#138 = VERTEX_POINT ( 'NONE', #122 ) ;
#139 = ORIENTED_EDGE ( 'NONE', *, *, #205, .F. ) ;
#140 = ORIENTED_EDGE ( 'NONE', *, *, #208, .T. ) ;
#141 = ORIENTED_EDGE ( 'NONE', *, *, #187, .F. ) ;
#142 = ORIENTED_EDGE ( 'NONE', *, *, #211, .T. ) ;
#143 = ORIENTED_EDGE ( 'NONE', *, *, #188, .F. ) ;
#144 = ORIENTED_EDGE ( 'NONE', *, *, #190, .F. ) ;
#145 = ORIENTED_EDGE ( 'NONE', *, *, #186, .T. ) ;
#146 = EDGE_LOOP ( 'NONE', ( #145, #142 ) ) ;
#147 = EDGE_LOOP ( 'NONE', ( #130, #159, #160, #158 ) ) ;
#148 = EDGE_LOOP ( 'NONE', ( #157, #155, #156, #154 ) ) ;
#149 = EDGE_LOOP ( 'NONE', ( #144, #141 ) ) ;
#150 = EDGE_LOOP ( 'NONE', ( #143, #139 ) ) ;
#151 = EDGE_LOOP ( 'NONE', ( #163, #162, #161, #164 ) ) ;
#152 = EDGE_LOOP ( 'NONE', ( #140, #112 ) ) ;
#153 = EDGE_LOOP ( 'NONE', ( #167, #166, #165, #113 ) ) ;
#154 = ORIENTED_EDGE ( 'NONE', *, *, #185, .F. ) ;
#155 = ORIENTED_EDGE ( 'NONE', *, *, #210, .T. ) ;
#156 = ORIENTED_EDGE ( 'NONE', *, *, #205, .T. ) ;
#157 = ORIENTED_EDGE ( 'NONE', *, *, #211, .F. ) ;
#158 = ORIENTED_EDGE ( 'NONE', *, *, #209, .F. ) ;
#159 = ORIENTED_EDGE ( 'NONE', *, *, #189, .T. ) ;
#160 = ORIENTED_EDGE ( 'NONE', *, *, #208, .F. ) ;
#161 = ORIENTED_EDGE ( 'NONE', *, *, #209, .T. ) ;
#162 = ORIENTED_EDGE ( 'NONE', *, *, #187, .T. ) ;
#163 = ORIENTED_EDGE ( 'NONE', *, *, #189, .F. ) ;
#164 = ORIENTED_EDGE ( 'NONE', *, *, #206, .F. ) ;
#165 = ORIENTED_EDGE ( 'NONE', *, *, #185, .T. ) ;
#166 = ORIENTED_EDGE ( 'NONE', *, *, #186, .F. ) ;
#167 = ORIENTED_EDGE ( 'NONE', *, *, #210, .F. ) ;
#168 =( GEOMETRIC_REPRESENTATION_CONTEXT ( 3 ) GLOBAL_UNCERTAINTY_ASSIGNED_CONTEXT ( ( #3 ) ) GLOBAL_UNIT_ASSIGNED_CONTEXT ( ( #114, #111, #110 ) ) REPRESENTATION_CONTEXT ( 'NONE', 'WORKASPACE' ) );
#169 = PRODUCT_DEFINITION_CONTEXT ( 'detailed design', #96, 'design' ) ;
#170 = PRODUCT_DEFINITION_SHAPE ( 'NONE', 'NONE',  #183 ) ;
#171 = MANIFOLD_SOLID_BREP ( 'Boss-Extrude1', #223 ) ;
#172 = DIMENSIONAL_EXPONENTS ( 1.000000000000000000, 0.0000000000000000000, 0.0000000000000000000, 0.0000000000000000000, 0.0000000000000000000, 0.0000000000000000000, 0.0000000000000000000 ) ;
#173 = APPLICATION_CONTEXT ( 'automotive_design' ) ;
#174 = CIRCLE ( 'NONE', #12, 0.1279999999999999500 ) ;
#175 = CIRCLE ( 'NONE', #8, 0.2500000000000001100 ) ;
#176 = CIRCLE ( 'NONE', #20, 0.1279999999999999500 ) ;
#177 = COLOUR_RGB ( '',0.5686274509803921400, 0.5686274509803921400, 0.5882352941176470800 ) ;
#178 = CIRCLE ( 'NONE', #18, 0.2500000000000001100 ) ;
#179 = CIRCLE ( 'NONE', #10, 0.1279999999999999500 ) ;
#180 = CIRCLE ( 'NONE', #9, 0.1279999999999999500 ) ;
#181 = CIRCLE ( 'NONE', #15, 0.2500000000000001100 ) ;
#182 = COLOUR_RGB ( '',0.5686274509803921400, 0.5686274509803921400, 0.5882352941176470800 ) ;
#183 = PRODUCT_DEFINITION ( 'UNKNOWN', '', #201, #169 ) ;
#184 = PRODUCT_RELATED_PRODUCT_CATEGORY ( 'part', '', ( #214 ) ) ;
#185 = EDGE_CURVE ( 'NONE', #134, #132, #109, .T. ) ;
#186 = EDGE_CURVE ( 'NONE', #134, #138, #207, .T. ) ;
#187 = EDGE_CURVE ( 'NONE', #135, #133, #176, .T. ) ;
#188 = EDGE_CURVE ( 'NONE', #132, #131, #175, .T. ) ;
#189 = EDGE_CURVE ( 'NONE', #135, #137, #32, .T. ) ;
#190 = EDGE_CURVE ( 'NONE', #133, #135, #174, .T. ) ;
#191 = ADVANCED_FACE ( 'NONE', ( #220 ), #30, .F. ) ;
#192 = ADVANCED_FACE ( 'NONE', ( #221 ), #27, .T. ) ;
#193 = ADVANCED_FACE ( 'NONE', ( #29, #25 ), #91, .F. ) ;
#194 = ADVANCED_FACE ( 'NONE', ( #24, #26 ), #87, .T. ) ;
#195 = ADVANCED_FACE ( 'NONE', ( #19 ), #16, .T. ) ;
#196 = ADVANCED_FACE ( 'NONE', ( #23 ), #13, .F. ) ;
#197 = STYLED_ITEM ( 'NONE', ( #46 ), #2 ) ;
#198 = LENGTH_MEASURE_WITH_UNIT ( LENGTH_MEASURE( 0.02539999999999999900 ), #45 );
#199 = MECHANICAL_DESIGN_GEOMETRIC_PRESENTATION_REPRESENTATION (  '', ( #197 ), #204 ) ;
#200 = PRESENTATION_LAYER_ASSIGNMENT (  '', '', ( #197 ) ) ;
#201 = PRODUCT_DEFINITION_FORMATION_WITH_SPECIFIED_SOURCE ( 'ANY', '', #214, .NOT_KNOWN. ) ;
#202 = AXIS2_PLACEMENT_3D ( 'NONE', #36, #35, #33 ) ;
#203 =( GEOMETRIC_REPRESENTATION_CONTEXT ( 3 ) GLOBAL_UNCERTAINTY_ASSIGNED_CONTEXT ( ( #1 ) ) GLOBAL_UNIT_ASSIGNED_CONTEXT ( ( #59, #56, #54 ) ) REPRESENTATION_CONTEXT ( 'NONE', 'WORKASPACE' ) );
#204 =( GEOMETRIC_REPRESENTATION_CONTEXT ( 3 ) GLOBAL_UNCERTAINTY_ASSIGNED_CONTEXT ( ( #4 ) ) GLOBAL_UNIT_ASSIGNED_CONTEXT ( ( #44, #43, #42 ) ) REPRESENTATION_CONTEXT ( 'NONE', 'WORKASPACE' ) );
#205 = EDGE_CURVE ( 'NONE', #131, #132, #178, .T. ) ;
#206 = EDGE_CURVE ( 'NONE', #137, #136, #179, .T. ) ;
#207 = CIRCLE ( 'NONE', #217, 0.2500000000000001100 ) ;
#208 = EDGE_CURVE ( 'NONE', #136, #137, #180, .T. ) ;
#209 = EDGE_CURVE ( 'NONE', #133, #136, #67, .T. ) ;
#210 = EDGE_CURVE ( 'NONE', #138, #131, #63, .T. ) ;
#211 = EDGE_CURVE ( 'NONE', #138, #134, #181, .T. ) ;
#212 = DIMENSIONAL_EXPONENTS ( 1.000000000000000000, 0.0000000000000000000, 0.0000000000000000000, 0.0000000000000000000, 0.0000000000000000000, 0.0000000000000000000, 0.0000000000000000000 ) ;
#213 = DIMENSIONAL_EXPONENTS ( 1.000000000000000000, 0.0000000000000000000, 0.0000000000000000000, 0.0000000000000000000, 0.0000000000000000000, 0.0000000000000000000, 0.0000000000000000000 ) ;
#214 = PRODUCT ( 'H125-500-256', 'H125-500-256', '', ( #38 ) ) ;
#215 = LENGTH_MEASURE_WITH_UNIT ( LENGTH_MEASURE( 0.02539999999999999900 ), #115 );
#216 = MECHANICAL_DESIGN_GEOMETRIC_PRESENTATION_REPRESENTATION (  '', ( #219 ), #168 ) ;
#217 = AXIS2_PLACEMENT_3D ( 'NONE', #106, #105, #104 ) ;
#218 = PRESENTATION_LAYER_ASSIGNMENT (  '', '', ( #219 ) ) ;
#219 = STYLED_ITEM ( 'NONE', ( #116 ), #171 ) ;
#220 = FACE_OUTER_BOUND ( 'NONE', #151, .T. ) ;
#221 = FACE_OUTER_BOUND ( 'NONE', #153, .T. ) ;
#222 = VECTOR ( 'NONE', #107, 39.37007874015748100 ) ;
#223 = CLOSED_SHELL ( 'NONE', ( #196, #195, #194, #193, #192, #191 ) ) ;
ENDSEC;
END-ISO-10303-21;
