ISO-10303-21;
HEADER;
FILE_DESCRIPTION (( 'STEP AP214' ),
    '1' );
FILE_NAME ('H125-500-256-DM.step',
    '2012-04-20T20:58:13',
    ( '' ),
    ( '' ),
    'SwSTEP 2.0',
    'SolidWorks 2012',
    '' );
FILE_SCHEMA (( 'AUTOMOTIVE_DESIGN' ));
ENDSEC;

DATA;
#1 = UNCERTAINTY_MEASURE_WITH_UNIT (LENGTH_MEASURE( 1.000000000000000100E-005 ), #110, 'distance_accuracy_value', 'NONE');
#2 = LENGTH_MEASURE_WITH_UNIT ( LENGTH_MEASURE( 0.02539999999999999900 ), #42 );
#3 = VECTOR ( 'NONE', #38, 39.37007874015748100 ) ;
#4 = MECHANICAL_DESIGN_GEOMETRIC_PRESENTATION_REPRESENTATION (  '', ( #8 ), #170 ) ;
#5 = VECTOR ( 'NONE', #52, 39.37007874015748100 ) ;
#6 = AXIS2_PLACEMENT_3D ( 'NONE', #90, #86, #85 ) ;
#7 = PRESENTATION_LAYER_ASSIGNMENT (  '', '', ( #8 ) ) ;
#8 = STYLED_ITEM ( 'NONE', ( #43 ), #176 ) ;
#9 = VECTOR ( 'NONE', #87, 39.37007874015748100 ) ;
#10 = AXIS2_PLACEMENT_3D ( 'NONE', #61, #60, #59 ) ;
#11 = LENGTH_MEASURE_WITH_UNIT ( LENGTH_MEASURE( 0.02539999999999999900 ), #58 );
#12 = AXIS2_PLACEMENT_3D ( 'NONE', #65, #64, #63 ) ;
#13 = AXIS2_PLACEMENT_3D ( 'NONE', #37, #51, #32 ) ;
#14 = FACE_OUTER_BOUND ( 'NONE', #148, .T. ) ;
#15 = FACE_BOUND ( 'NONE', #153, .T. ) ;
#16 = AXIS2_PLACEMENT_3D ( 'NONE', #84, #83, #82 ) ;
#17 = FACE_OUTER_BOUND ( 'NONE', #147, .T. ) ;
#18 = AXIS2_PLACEMENT_3D ( 'NONE', #93, #92, #91 ) ;
#19 = FACE_BOUND ( 'NONE', #151, .T. ) ;
#20 = CYLINDRICAL_SURFACE ( 'NONE', #21, 0.2500000000000000000 ) ;
#21 = AXIS2_PLACEMENT_3D ( 'NONE', #69, #68, #67 ) ;
#22 = FACE_OUTER_BOUND ( 'NONE', #152, .T. ) ;
#23 = FACE_OUTER_BOUND ( 'NONE', #154, .T. ) ;
#24 = CYLINDRICAL_SURFACE ( 'NONE', #25, 0.1280000000000000000 ) ;
#25 = AXIS2_PLACEMENT_3D ( 'NONE', #72, #71, #70 ) ;
#26 = VECTOR ( 'NONE', #75, 39.37007874015748100 ) ;
#27 = AXIS2_PLACEMENT_3D ( 'NONE', #78, #74, #73 ) ;
#28 = AXIS2_PLACEMENT_3D ( 'NONE', #102, #101, #96 ) ;
#29 = CYLINDRICAL_SURFACE ( 'NONE', #28, 0.1280000000000000000 ) ;
#30 = AXIS2_PLACEMENT_3D ( 'NONE', #81, #80, #79 ) ;
#31 = DIRECTION ( 'NONE',  ( 1.000000000000000000, 0.0000000000000000000, 0.0000000000000000000 ) ) ;
#32 = DIRECTION ( 'NONE',  ( 1.000000000000000000, 0.0000000000000000000, 0.0000000000000000000 ) ) ;
#33 = DIRECTION ( 'NONE',  ( 0.0000000000000000000, 0.0000000000000000000, 1.000000000000000000 ) ) ;
#34 = CARTESIAN_POINT ( 'NONE',  ( 0.0000000000000000000, 0.0000000000000000000, 0.0000000000000000000 ) ) ;
#35 = APPLICATION_PROTOCOL_DEFINITION ( 'draft international standard', 'automotive_design', 1998, #180 ) ;
#36 = LINE ( 'NONE', #53, #5 ) ;
#37 = CARTESIAN_POINT ( 'NONE',  ( 0.0000000000000000000, 0.0000000000000000000, 0.1250000000000000000 ) ) ;
#38 = DIRECTION ( 'NONE',  ( -0.0000000000000000000, -0.0000000000000000000, -1.000000000000000000 ) ) ;
#39 =( NAMED_UNIT ( * ) SI_UNIT ( $, .STERADIAN. ) SOLID_ANGLE_UNIT ( ) );
#40 =( NAMED_UNIT ( * ) PLANE_ANGLE_UNIT ( ) SI_UNIT ( $, .RADIAN. ) );
#41 =( CONVERSION_BASED_UNIT ( 'INCH', #2 ) LENGTH_UNIT ( ) NAMED_UNIT ( #178 ) );
#42 =( LENGTH_UNIT ( ) NAMED_UNIT ( * ) SI_UNIT ( $, .METRE. ) );
#43 = PRESENTATION_STYLE_ASSIGNMENT (( #44 ) ) ;
#44 = SURFACE_STYLE_USAGE ( .BOTH. , #45 ) ;
#45 = SURFACE_SIDE_STYLE ('',( #46 ) ) ;
#46 = SURFACE_STYLE_FILL_AREA ( #47 ) ;
#47 = FILL_AREA_STYLE ('',( #48 ) ) ;
#48 = FILL_AREA_STYLE_COLOUR ( '', #196 ) ;
#49 = APPLICATION_PROTOCOL_DEFINITION ( 'draft international standard', 'automotive_design', 1998, #179 ) ;
#50 = SHAPE_DEFINITION_REPRESENTATION ( #171, #176 ) ;
#51 = DIRECTION ( 'NONE',  ( 0.0000000000000000000, 0.0000000000000000000, 1.000000000000000000 ) ) ;
#52 = DIRECTION ( 'NONE',  ( -0.0000000000000000000, -0.0000000000000000000, -1.000000000000000000 ) ) ;
#53 = CARTESIAN_POINT ( 'NONE',  ( 0.2500000000000000000, 3.061616997868383000E-017, 0.1250000000000000000 ) ) ;
#54 = PRODUCT_CONTEXT ( 'NONE', #179, 'mechanical' ) ;
#55 =( NAMED_UNIT ( * ) SI_UNIT ( $, .STERADIAN. ) SOLID_ANGLE_UNIT ( ) );
#56 =( NAMED_UNIT ( * ) PLANE_ANGLE_UNIT ( ) SI_UNIT ( $, .RADIAN. ) );
#57 =( CONVERSION_BASED_UNIT ( 'INCH', #11 ) LENGTH_UNIT ( ) NAMED_UNIT ( #177 ) );
#58 =( LENGTH_UNIT ( ) NAMED_UNIT ( * ) SI_UNIT ( $, .METRE. ) );
#59 = DIRECTION ( 'NONE',  ( 1.000000000000000000, 0.0000000000000000000, -0.0000000000000000000 ) ) ;
#60 = DIRECTION ( 'NONE',  ( 0.0000000000000000000, 0.0000000000000000000, 1.000000000000000000 ) ) ;
#61 = CARTESIAN_POINT ( 'NONE',  ( 0.0000000000000000000, 0.0000000000000000000, 0.1250000000000000000 ) ) ;
#62 = PLANE ( 'NONE',  #10 ) ;
#63 = DIRECTION ( 'NONE',  ( 1.000000000000000000, 0.0000000000000000000, -0.0000000000000000000 ) ) ;
#64 = DIRECTION ( 'NONE',  ( 0.0000000000000000000, 0.0000000000000000000, 1.000000000000000000 ) ) ;
#65 = CARTESIAN_POINT ( 'NONE',  ( 0.0000000000000000000, 0.0000000000000000000, 0.0000000000000000000 ) ) ;
#66 = PLANE ( 'NONE',  #12 ) ;
#67 = DIRECTION ( 'NONE',  ( -1.000000000000000000, 0.0000000000000000000, 0.0000000000000000000 ) ) ;
#68 = DIRECTION ( 'NONE',  ( -0.0000000000000000000, -0.0000000000000000000, -1.000000000000000000 ) ) ;
#69 = CARTESIAN_POINT ( 'NONE',  ( 0.0000000000000000000, 0.0000000000000000000, 0.1250000000000000000 ) ) ;
#70 = DIRECTION ( 'NONE',  ( -1.000000000000000000, 0.0000000000000000000, 0.0000000000000000000 ) ) ;
#71 = DIRECTION ( 'NONE',  ( -0.0000000000000000000, -0.0000000000000000000, -1.000000000000000000 ) ) ;
#72 = CARTESIAN_POINT ( 'NONE',  ( 0.0000000000000000000, 0.0000000000000000000, 0.1250000000000000000 ) ) ;
#73 = DIRECTION ( 'NONE',  ( 1.000000000000000000, 0.0000000000000000000, 0.0000000000000000000 ) ) ;
#74 = DIRECTION ( 'NONE',  ( 0.0000000000000000000, 0.0000000000000000000, 1.000000000000000000 ) ) ;
#75 = DIRECTION ( 'NONE',  ( -0.0000000000000000000, -0.0000000000000000000, -1.000000000000000000 ) ) ;
#76 = CARTESIAN_POINT ( 'NONE',  ( 0.1280000000000000000, 1.567547902908612300E-017, 0.1250000000000000000 ) ) ;
#77 = LINE ( 'NONE', #76, #26 ) ;
#78 = CARTESIAN_POINT ( 'NONE',  ( 0.0000000000000000000, 0.0000000000000000000, 0.1250000000000000000 ) ) ;
#79 = DIRECTION ( 'NONE',  ( 1.000000000000000000, 0.0000000000000000000, 0.0000000000000000000 ) ) ;
#80 = DIRECTION ( 'NONE',  ( 0.0000000000000000000, 0.0000000000000000000, 1.000000000000000000 ) ) ;
#81 = CARTESIAN_POINT ( 'NONE',  ( 0.0000000000000000000, 0.0000000000000000000, 0.0000000000000000000 ) ) ;
#82 = DIRECTION ( 'NONE',  ( 1.000000000000000000, 0.0000000000000000000, 0.0000000000000000000 ) ) ;
#83 = DIRECTION ( 'NONE',  ( 0.0000000000000000000, 0.0000000000000000000, 1.000000000000000000 ) ) ;
#84 = CARTESIAN_POINT ( 'NONE',  ( 0.0000000000000000000, 0.0000000000000000000, 0.1250000000000000000 ) ) ;
#85 = DIRECTION ( 'NONE',  ( 1.000000000000000000, 0.0000000000000000000, 0.0000000000000000000 ) ) ;
#86 = DIRECTION ( 'NONE',  ( 0.0000000000000000000, 0.0000000000000000000, 1.000000000000000000 ) ) ;
#87 = DIRECTION ( 'NONE',  ( -0.0000000000000000000, -0.0000000000000000000, -1.000000000000000000 ) ) ;
#88 = CARTESIAN_POINT ( 'NONE',  ( -0.2500000000000000000, 0.0000000000000000000, 0.1250000000000000000 ) ) ;
#89 = LINE ( 'NONE', #88, #9 ) ;
#90 = CARTESIAN_POINT ( 'NONE',  ( 0.0000000000000000000, 0.0000000000000000000, 0.1250000000000000000 ) ) ;
#91 = DIRECTION ( 'NONE',  ( 1.000000000000000000, 0.0000000000000000000, 0.0000000000000000000 ) ) ;
#92 = DIRECTION ( 'NONE',  ( 0.0000000000000000000, 0.0000000000000000000, 1.000000000000000000 ) ) ;
#93 = CARTESIAN_POINT ( 'NONE',  ( 0.0000000000000000000, 0.0000000000000000000, 0.0000000000000000000 ) ) ;
#94 = CARTESIAN_POINT ( 'NONE',  ( -0.1280000000000000000, 0.0000000000000000000, 0.1250000000000000000 ) ) ;
#95 = LINE ( 'NONE', #94, #3 ) ;
#96 = DIRECTION ( 'NONE',  ( -1.000000000000000000, 0.0000000000000000000, 0.0000000000000000000 ) ) ;
#97 = DIRECTION ( 'NONE',  ( -1.000000000000000000, 0.0000000000000000000, 0.0000000000000000000 ) ) ;
#98 = DIRECTION ( 'NONE',  ( -0.0000000000000000000, -0.0000000000000000000, -1.000000000000000000 ) ) ;
#99 = CARTESIAN_POINT ( 'NONE',  ( 0.0000000000000000000, 0.0000000000000000000, 0.1250000000000000000 ) ) ;
#100 = CARTESIAN_POINT ( 'NONE',  ( 0.0000000000000000000, 0.0000000000000000000, 0.0000000000000000000 ) ) ;
#101 = DIRECTION ( 'NONE',  ( -0.0000000000000000000, -0.0000000000000000000, -1.000000000000000000 ) ) ;
#102 = CARTESIAN_POINT ( 'NONE',  ( 0.0000000000000000000, 0.0000000000000000000, 0.1250000000000000000 ) ) ;
#103 = CARTESIAN_POINT ( 'NONE',  ( 0.0000000000000000000, 0.0000000000000000000, 0.0000000000000000000 ) ) ;
#104 = DIRECTION ( 'NONE',  ( 1.000000000000000000, 0.0000000000000000000, 0.0000000000000000000 ) ) ;
#105 = DIRECTION ( 'NONE',  ( 0.0000000000000000000, 0.0000000000000000000, 1.000000000000000000 ) ) ;
#106 = DIRECTION ( 'NONE',  ( 1.000000000000000000, 0.0000000000000000000, 0.0000000000000000000 ) ) ;
#107 = DIRECTION ( 'NONE',  ( 0.0000000000000000000, 0.0000000000000000000, 1.000000000000000000 ) ) ;
#108 =( NAMED_UNIT ( * ) SI_UNIT ( $, .STERADIAN. ) SOLID_ANGLE_UNIT ( ) );
#109 =( NAMED_UNIT ( * ) PLANE_ANGLE_UNIT ( ) SI_UNIT ( $, .RADIAN. ) );
#110 =( CONVERSION_BASED_UNIT ( 'INCH', #213 ) LENGTH_UNIT ( ) NAMED_UNIT ( #199 ) );
#111 =( LENGTH_UNIT ( ) NAMED_UNIT ( * ) SI_UNIT ( $, .METRE. ) );
#112 = PRESENTATION_STYLE_ASSIGNMENT (( #113 ) ) ;
#113 = SURFACE_STYLE_USAGE ( .BOTH. , #114 ) ;
#114 = SURFACE_SIDE_STYLE ('',( #115 ) ) ;
#115 = SURFACE_STYLE_FILL_AREA ( #116 ) ;
#116 = FILL_AREA_STYLE ('',( #117 ) ) ;
#117 = FILL_AREA_STYLE_COLOUR ( '', #192 ) ;
#118 = CARTESIAN_POINT ( 'NONE',  ( 0.2500000000000000000, 3.061616997868383000E-017, 0.1250000000000000000 ) ) ;
#119 = CARTESIAN_POINT ( 'NONE',  ( 0.1280000000000000000, 1.567547902908612300E-017, 0.0000000000000000000 ) ) ;
#120 = CARTESIAN_POINT ( 'NONE',  ( -0.1280000000000000000, 0.0000000000000000000, 0.0000000000000000000 ) ) ;
#121 = CARTESIAN_POINT ( 'NONE',  ( 0.1280000000000000000, 1.567547902908612300E-017, 0.1250000000000000000 ) ) ;
#122 = CARTESIAN_POINT ( 'NONE',  ( -0.1280000000000000000, 0.0000000000000000000, 0.1250000000000000000 ) ) ;
#123 = CARTESIAN_POINT ( 'NONE',  ( -0.2500000000000000000, 0.0000000000000000000, 0.1250000000000000000 ) ) ;
#124 = CARTESIAN_POINT ( 'NONE',  ( -0.2500000000000000000, 0.0000000000000000000, 0.0000000000000000000 ) ) ;
#125 = CARTESIAN_POINT ( 'NONE',  ( 0.2500000000000000000, 3.061616997868383000E-017, 0.0000000000000000000 ) ) ;
#126 = ORIENTED_EDGE ( 'NONE', *, *, #208, .T. ) ;
#127 = ORIENTED_EDGE ( 'NONE', *, *, #205, .F. ) ;
#128 = ORIENTED_EDGE ( 'NONE', *, *, #201, .T. ) ;
#129 = ORIENTED_EDGE ( 'NONE', *, *, #206, .F. ) ;
#130 = ORIENTED_EDGE ( 'NONE', *, *, #208, .F. ) ;
#131 = ORIENTED_EDGE ( 'NONE', *, *, #204, .T. ) ;
#132 = ORIENTED_EDGE ( 'NONE', *, *, #203, .F. ) ;
#133 = ORIENTED_EDGE ( 'NONE', *, *, #200, .T. ) ;
#134 = ORIENTED_EDGE ( 'NONE', *, *, #202, .T. ) ;
#135 = ORIENTED_EDGE ( 'NONE', *, *, #201, .F. ) ;
#136 = ORIENTED_EDGE ( 'NONE', *, *, #197, .F. ) ;
#137 = ORIENTED_EDGE ( 'NONE', *, *, #207, .T. ) ;
#138 = ORIENTED_EDGE ( 'NONE', *, *, #183, .F. ) ;
#139 = VERTEX_POINT ( 'NONE', #125 ) ;
#140 = VERTEX_POINT ( 'NONE', #124 ) ;
#141 = VERTEX_POINT ( 'NONE', #123 ) ;
#142 = VERTEX_POINT ( 'NONE', #122 ) ;
#143 = VERTEX_POINT ( 'NONE', #121 ) ;
#144 = VERTEX_POINT ( 'NONE', #120 ) ;
#145 = VERTEX_POINT ( 'NONE', #119 ) ;
#146 = VERTEX_POINT ( 'NONE', #118 ) ;
#147 = EDGE_LOOP ( 'NONE', ( #157, #156, #155, #158 ) ) ;
#148 = EDGE_LOOP ( 'NONE', ( #131, #128 ) ) ;
#149 = EDGE_LOOP ( 'NONE', ( #126, #137, #138, #136 ) ) ;
#150 = EDGE_LOOP ( 'NONE', ( #135, #133, #134, #132 ) ) ;
#151 = EDGE_LOOP ( 'NONE', ( #130, #127 ) ) ;
#152 = EDGE_LOOP ( 'NONE', ( #129, #164 ) ) ;
#153 = EDGE_LOOP ( 'NONE', ( #163, #162 ) ) ;
#154 = EDGE_LOOP ( 'NONE', ( #165, #160, #159, #161 ) ) ;
#155 = ORIENTED_EDGE ( 'NONE', *, *, #197, .T. ) ;
#156 = ORIENTED_EDGE ( 'NONE', *, *, #205, .T. ) ;
#157 = ORIENTED_EDGE ( 'NONE', *, *, #207, .F. ) ;
#158 = ORIENTED_EDGE ( 'NONE', *, *, #181, .F. ) ;
#159 = ORIENTED_EDGE ( 'NONE', *, *, #203, .T. ) ;
#160 = ORIENTED_EDGE ( 'NONE', *, *, #204, .F. ) ;
#161 = ORIENTED_EDGE ( 'NONE', *, *, #206, .T. ) ;
#162 = ORIENTED_EDGE ( 'NONE', *, *, #181, .T. ) ;
#163 = ORIENTED_EDGE ( 'NONE', *, *, #183, .T. ) ;
#164 = ORIENTED_EDGE ( 'NONE', *, *, #202, .F. ) ;
#165 = ORIENTED_EDGE ( 'NONE', *, *, #200, .F. ) ;
#166 = PRODUCT_DEFINITION_FORMATION_WITH_SPECIFIED_SOURCE ( 'ANY', '', #184, .NOT_KNOWN. ) ;
#167 = AXIS2_PLACEMENT_3D ( 'NONE', #34, #33, #31 ) ;
#168 =( GEOMETRIC_REPRESENTATION_CONTEXT ( 3 ) GLOBAL_UNCERTAINTY_ASSIGNED_CONTEXT ( ( #1 ) ) GLOBAL_UNIT_ASSIGNED_CONTEXT ( ( #110, #109, #108 ) ) REPRESENTATION_CONTEXT ( 'NONE', 'WORKASPACE' ) );
#169 =( GEOMETRIC_REPRESENTATION_CONTEXT ( 3 ) GLOBAL_UNCERTAINTY_ASSIGNED_CONTEXT ( ( #175 ) ) GLOBAL_UNIT_ASSIGNED_CONTEXT ( ( #57, #56, #55 ) ) REPRESENTATION_CONTEXT ( 'NONE', 'WORKASPACE' ) );
#170 =( GEOMETRIC_REPRESENTATION_CONTEXT ( 3 ) GLOBAL_UNCERTAINTY_ASSIGNED_CONTEXT ( ( #174 ) ) GLOBAL_UNIT_ASSIGNED_CONTEXT ( ( #41, #40, #39 ) ) REPRESENTATION_CONTEXT ( 'NONE', 'WORKASPACE' ) );
#171 = PRODUCT_DEFINITION_SHAPE ( 'NONE', 'NONE',  #182 ) ;
#172 = MANIFOLD_SOLID_BREP ( 'Boss-Extrude1', #223 ) ;
#173 = PRODUCT_DEFINITION_CONTEXT ( 'detailed design', #180, 'design' ) ;
#174 = UNCERTAINTY_MEASURE_WITH_UNIT (LENGTH_MEASURE( 1.000000000000000100E-005 ), #41, 'distance_accuracy_value', 'NONE');
#175 = UNCERTAINTY_MEASURE_WITH_UNIT (LENGTH_MEASURE( 1.000000000000000100E-005 ), #57, 'distance_accuracy_value', 'NONE');
#176 = ADVANCED_BREP_SHAPE_REPRESENTATION ( 'H125-500-256-DM', ( #172, #167 ), #169 ) ;
#177 = DIMENSIONAL_EXPONENTS ( 1.000000000000000000, 0.0000000000000000000, 0.0000000000000000000, 0.0000000000000000000, 0.0000000000000000000, 0.0000000000000000000, 0.0000000000000000000 ) ;
#178 = DIMENSIONAL_EXPONENTS ( 1.000000000000000000, 0.0000000000000000000, 0.0000000000000000000, 0.0000000000000000000, 0.0000000000000000000, 0.0000000000000000000, 0.0000000000000000000 ) ;
#179 = APPLICATION_CONTEXT ( 'automotive_design' ) ;
#180 = APPLICATION_CONTEXT ( 'automotive_design' ) ;
#181 = EDGE_CURVE ( 'NONE', #145, #144, #188, .T. ) ;
#182 = PRODUCT_DEFINITION ( 'UNKNOWN', '', #166, #173 ) ;
#183 = EDGE_CURVE ( 'NONE', #144, #145, #191, .T. ) ;
#184 = PRODUCT ( 'H125-500-256-DM', 'H125-500-256-DM', '', ( #54 ) ) ;
#185 = ADVANCED_FACE ( 'NONE', ( #220 ), #214, .T. ) ;
#186 = ADVANCED_FACE ( 'NONE', ( #219 ), #29, .F. ) ;
#187 = CIRCLE ( 'NONE', #6, 0.2500000000000000000 ) ;
#188 = CIRCLE ( 'NONE', #218, 0.1280000000000000000 ) ;
#189 = CIRCLE ( 'NONE', #13, 0.2500000000000000000 ) ;
#190 = CIRCLE ( 'NONE', #18, 0.2500000000000000000 ) ;
#191 = CIRCLE ( 'NONE', #221, 0.1280000000000000000 ) ;
#192 = COLOUR_RGB ( '',0.5686274509803921400, 0.5686274509803921400, 0.5882352941176470800 ) ;
#193 = CIRCLE ( 'NONE', #16, 0.1280000000000000000 ) ;
#194 = CIRCLE ( 'NONE', #30, 0.2500000000000000000 ) ;
#195 = CIRCLE ( 'NONE', #27, 0.1280000000000000000 ) ;
#196 = COLOUR_RGB ( '',0.5686274509803921400, 0.5686274509803921400, 0.5882352941176470800 ) ;
#197 = EDGE_CURVE ( 'NONE', #142, #144, #95, .T. ) ;
#198 = PRODUCT_RELATED_PRODUCT_CATEGORY ( 'part', '', ( #184 ) ) ;
#199 = DIMENSIONAL_EXPONENTS ( 1.000000000000000000, 0.0000000000000000000, 0.0000000000000000000, 0.0000000000000000000, 0.0000000000000000000, 0.0000000000000000000, 0.0000000000000000000 ) ;
#200 = EDGE_CURVE ( 'NONE', #146, #139, #36, .T. ) ;
#201 = EDGE_CURVE ( 'NONE', #146, #141, #189, .T. ) ;
#202 = EDGE_CURVE ( 'NONE', #139, #140, #190, .T. ) ;
#203 = EDGE_CURVE ( 'NONE', #141, #140, #89, .T. ) ;
#204 = EDGE_CURVE ( 'NONE', #141, #146, #187, .T. ) ;
#205 = EDGE_CURVE ( 'NONE', #143, #142, #193, .T. ) ;
#206 = EDGE_CURVE ( 'NONE', #140, #139, #194, .T. ) ;
#207 = EDGE_CURVE ( 'NONE', #143, #145, #77, .T. ) ;
#208 = EDGE_CURVE ( 'NONE', #142, #143, #195, .T. ) ;
#209 = ADVANCED_FACE ( 'NONE', ( #17 ), #24, .F. ) ;
#210 = ADVANCED_FACE ( 'NONE', ( #23 ), #20, .T. ) ;
#211 = ADVANCED_FACE ( 'NONE', ( #22, #15 ), #66, .F. ) ;
#212 = ADVANCED_FACE ( 'NONE', ( #14, #19 ), #62, .T. ) ;
#213 = LENGTH_MEASURE_WITH_UNIT ( LENGTH_MEASURE( 0.02539999999999999900 ), #111 );
#214 = CYLINDRICAL_SURFACE ( 'NONE', #222, 0.2500000000000000000 ) ;
#215 = MECHANICAL_DESIGN_GEOMETRIC_PRESENTATION_REPRESENTATION (  '', ( #216 ), #168 ) ;
#216 = STYLED_ITEM ( 'NONE', ( #112 ), #172 ) ;
#217 = PRESENTATION_LAYER_ASSIGNMENT (  '', '', ( #216 ) ) ;
#218 = AXIS2_PLACEMENT_3D ( 'NONE', #103, #107, #106 ) ;
#219 = FACE_OUTER_BOUND ( 'NONE', #149, .T. ) ;
#220 = FACE_OUTER_BOUND ( 'NONE', #150, .T. ) ;
#221 = AXIS2_PLACEMENT_3D ( 'NONE', #100, #105, #104 ) ;
#222 = AXIS2_PLACEMENT_3D ( 'NONE', #99, #98, #97 ) ;
#223 = CLOSED_SHELL ( 'NONE', ( #186, #185, #212, #211, #210, #209 ) ) ;
ENDSEC;
END-ISO-10303-21;
