ISO-10303-21;
HEADER;
FILE_DESCRIPTION (( 'STEP AP214' ),
    '1' );
FILE_NAME ('H125B.step',
    '2012-04-20T20:58:22',
    ( '' ),
    ( '' ),
    'SwSTEP 2.0',
    'SolidWorks 2012',
    '' );
FILE_SCHEMA (( 'AUTOMOTIVE_DESIGN' ));
ENDSEC;

DATA;
#1 = MECHANICAL_DESIGN_GEOMETRIC_PRESENTATION_REPRESENTATION (  '', ( #12 ), #187 ) ;
#2 = FACE_BOUND ( 'NONE', #142, .T. ) ;
#3 = AXIS2_PLACEMENT_3D ( 'NONE', #70, #69, #68 ) ;
#4 = STYLED_ITEM ( 'NONE', ( #33 ), #182 ) ;
#5 = CYLINDRICAL_SURFACE ( 'NONE', #26, 0.05450000000000000000 ) ;
#6 = FACE_OUTER_BOUND ( 'NONE', #140, .T. ) ;
#7 = MECHANICAL_DESIGN_GEOMETRIC_PRESENTATION_REPRESENTATION (  '', ( #4 ), #196 ) ;
#8 = VECTOR ( 'NONE', #58, 39.37007874015748100 ) ;
#9 = AXIS2_PLACEMENT_3D ( 'NONE', #91, #88, #56 ) ;
#10 = AXIS2_PLACEMENT_3D ( 'NONE', #64, #57, #55 ) ;
#11 = VECTOR ( 'NONE', #61, 39.37007874015748100 ) ;
#12 = STYLED_ITEM ( 'NONE', ( #75 ), #179 ) ;
#13 = PRESENTATION_LAYER_ASSIGNMENT (  '', '', ( #12 ) ) ;
#14 = FACE_BOUND ( 'NONE', #144, .T. ) ;
#15 = FACE_OUTER_BOUND ( 'NONE', #138, .T. ) ;
#16 = AXIS2_PLACEMENT_3D ( 'NONE', #89, #87, #86 ) ;
#17 = CYLINDRICAL_SURFACE ( 'NONE', #9, 0.1250000000000000000 ) ;
#18 = FACE_OUTER_BOUND ( 'NONE', #141, .T. ) ;
#19 = AXIS2_PLACEMENT_3D ( 'NONE', #67, #66, #65 ) ;
#20 = VECTOR ( 'NONE', #54, 39.37007874015748100 ) ;
#21 = LENGTH_MEASURE_WITH_UNIT ( LENGTH_MEASURE( 0.02539999999999999900 ), #48 );
#22 = AXIS2_PLACEMENT_3D ( 'NONE', #84, #83, #92 ) ;
#23 = PRESENTATION_LAYER_ASSIGNMENT (  '', '', ( #4 ) ) ;
#24 = AXIS2_PLACEMENT_3D ( 'NONE', #51, #50, #53 ) ;
#25 = LENGTH_MEASURE_WITH_UNIT ( LENGTH_MEASURE( 0.02539999999999999900 ), #74 );
#26 = AXIS2_PLACEMENT_3D ( 'NONE', #29, #82, #81 ) ;
#27 =( NAMED_UNIT ( * ) SI_UNIT ( $, .STERADIAN. ) SOLID_ANGLE_UNIT ( ) );
#28 = APPLICATION_PROTOCOL_DEFINITION ( 'draft international standard', 'automotive_design', 1998, #185 ) ;
#29 = CARTESIAN_POINT ( 'NONE',  ( 0.0000000000000000000, 0.0000000000000000000, 0.1250000000000000000 ) ) ;
#30 =( NAMED_UNIT ( * ) PLANE_ANGLE_UNIT ( ) SI_UNIT ( $, .RADIAN. ) );
#31 = CARTESIAN_POINT ( 'NONE',  ( 0.0000000000000000000, 0.0000000000000000000, 0.0000000000000000000 ) ) ;
#32 = SURFACE_SIDE_STYLE ('',( #39 ) ) ;
#33 = PRESENTATION_STYLE_ASSIGNMENT (( #35 ) ) ;
#34 =( CONVERSION_BASED_UNIT ( 'INCH', #164 ) LENGTH_UNIT ( ) NAMED_UNIT ( #199 ) );
#35 = SURFACE_STYLE_USAGE ( .BOTH. , #32 ) ;
#36 =( LENGTH_UNIT ( ) NAMED_UNIT ( * ) SI_UNIT ( $, .METRE. ) );
#37 = FILL_AREA_STYLE_COLOUR ( '', #207 ) ;
#38 = FILL_AREA_STYLE ('',( #37 ) ) ;
#39 = SURFACE_STYLE_FILL_AREA ( #38 ) ;
#40 = APPLICATION_PROTOCOL_DEFINITION ( 'draft international standard', 'automotive_design', 1998, #186 ) ;
#41 =( NAMED_UNIT ( * ) SI_UNIT ( $, .STERADIAN. ) SOLID_ANGLE_UNIT ( ) );
#42 = PRODUCT_CONTEXT ( 'NONE', #186, 'mechanical' ) ;
#43 =( NAMED_UNIT ( * ) PLANE_ANGLE_UNIT ( ) SI_UNIT ( $, .RADIAN. ) );
#44 = SHAPE_DEFINITION_REPRESENTATION ( #178, #182 ) ;
#45 = DIRECTION ( 'NONE',  ( 1.000000000000000000, 0.0000000000000000000, 0.0000000000000000000 ) ) ;
#46 = DIRECTION ( 'NONE',  ( 0.0000000000000000000, 0.0000000000000000000, 1.000000000000000000 ) ) ;
#47 =( CONVERSION_BASED_UNIT ( 'INCH', #21 ) LENGTH_UNIT ( ) NAMED_UNIT ( #198 ) );
#48 =( LENGTH_UNIT ( ) NAMED_UNIT ( * ) SI_UNIT ( $, .METRE. ) );
#49 = LINE ( 'NONE', #52, #20 ) ;
#50 = DIRECTION ( 'NONE',  ( 0.0000000000000000000, 0.0000000000000000000, 1.000000000000000000 ) ) ;
#51 = CARTESIAN_POINT ( 'NONE',  ( 0.0000000000000000000, 0.0000000000000000000, 0.0000000000000000000 ) ) ;
#52 = CARTESIAN_POINT ( 'NONE',  ( 0.05450000000000000000, 6.674325055353074800E-018, 0.1250000000000000000 ) ) ;
#53 = DIRECTION ( 'NONE',  ( 1.000000000000000000, 0.0000000000000000000, 0.0000000000000000000 ) ) ;
#54 = DIRECTION ( 'NONE',  ( -0.0000000000000000000, -0.0000000000000000000, -1.000000000000000000 ) ) ;
#55 = DIRECTION ( 'NONE',  ( 1.000000000000000000, 0.0000000000000000000, 0.0000000000000000000 ) ) ;
#56 = DIRECTION ( 'NONE',  ( -1.000000000000000000, 0.0000000000000000000, 0.0000000000000000000 ) ) ;
#57 = DIRECTION ( 'NONE',  ( 0.0000000000000000000, 0.0000000000000000000, 1.000000000000000000 ) ) ;
#58 = DIRECTION ( 'NONE',  ( -0.0000000000000000000, -0.0000000000000000000, -1.000000000000000000 ) ) ;
#59 = CARTESIAN_POINT ( 'NONE',  ( 0.1250000000000000000, 1.530808498934191500E-017, 0.1250000000000000000 ) ) ;
#60 = LINE ( 'NONE', #59, #8 ) ;
#61 = DIRECTION ( 'NONE',  ( -0.0000000000000000000, -0.0000000000000000000, -1.000000000000000000 ) ) ;
#62 = CARTESIAN_POINT ( 'NONE',  ( -0.05450000000000000000, 0.0000000000000000000, 0.1250000000000000000 ) ) ;
#63 = LINE ( 'NONE', #62, #11 ) ;
#64 = CARTESIAN_POINT ( 'NONE',  ( 0.0000000000000000000, 0.0000000000000000000, 0.1250000000000000000 ) ) ;
#65 = DIRECTION ( 'NONE',  ( 1.000000000000000000, 0.0000000000000000000, 0.0000000000000000000 ) ) ;
#66 = DIRECTION ( 'NONE',  ( 0.0000000000000000000, 0.0000000000000000000, 1.000000000000000000 ) ) ;
#67 = CARTESIAN_POINT ( 'NONE',  ( 0.0000000000000000000, 0.0000000000000000000, 0.0000000000000000000 ) ) ;
#68 = DIRECTION ( 'NONE',  ( 1.000000000000000000, 0.0000000000000000000, 0.0000000000000000000 ) ) ;
#69 = DIRECTION ( 'NONE',  ( 0.0000000000000000000, 0.0000000000000000000, 1.000000000000000000 ) ) ;
#70 = CARTESIAN_POINT ( 'NONE',  ( 0.0000000000000000000, 0.0000000000000000000, 0.0000000000000000000 ) ) ;
#71 =( NAMED_UNIT ( * ) SI_UNIT ( $, .STERADIAN. ) SOLID_ANGLE_UNIT ( ) );
#72 =( NAMED_UNIT ( * ) PLANE_ANGLE_UNIT ( ) SI_UNIT ( $, .RADIAN. ) );
#73 =( CONVERSION_BASED_UNIT ( 'INCH', #25 ) LENGTH_UNIT ( ) NAMED_UNIT ( #197 ) );
#74 =( LENGTH_UNIT ( ) NAMED_UNIT ( * ) SI_UNIT ( $, .METRE. ) );
#75 = PRESENTATION_STYLE_ASSIGNMENT (( #76 ) ) ;
#76 = SURFACE_STYLE_USAGE ( .BOTH. , #77 ) ;
#77 = SURFACE_SIDE_STYLE ('',( #78 ) ) ;
#78 = SURFACE_STYLE_FILL_AREA ( #79 ) ;
#79 = FILL_AREA_STYLE ('',( #80 ) ) ;
#80 = FILL_AREA_STYLE_COLOUR ( '', #203 ) ;
#81 = DIRECTION ( 'NONE',  ( -1.000000000000000000, 0.0000000000000000000, 0.0000000000000000000 ) ) ;
#82 = DIRECTION ( 'NONE',  ( -0.0000000000000000000, -0.0000000000000000000, -1.000000000000000000 ) ) ;
#83 = DIRECTION ( 'NONE',  ( 0.0000000000000000000, 0.0000000000000000000, 1.000000000000000000 ) ) ;
#84 = CARTESIAN_POINT ( 'NONE',  ( 0.0000000000000000000, 0.0000000000000000000, 0.1250000000000000000 ) ) ;
#85 = PLANE ( 'NONE',  #22 ) ;
#86 = DIRECTION ( 'NONE',  ( 1.000000000000000000, 0.0000000000000000000, -0.0000000000000000000 ) ) ;
#87 = DIRECTION ( 'NONE',  ( 0.0000000000000000000, 0.0000000000000000000, 1.000000000000000000 ) ) ;
#88 = DIRECTION ( 'NONE',  ( -0.0000000000000000000, -0.0000000000000000000, -1.000000000000000000 ) ) ;
#89 = CARTESIAN_POINT ( 'NONE',  ( 0.0000000000000000000, 0.0000000000000000000, 0.0000000000000000000 ) ) ;
#90 = PLANE ( 'NONE',  #16 ) ;
#91 = CARTESIAN_POINT ( 'NONE',  ( 0.0000000000000000000, 0.0000000000000000000, 0.1250000000000000000 ) ) ;
#92 = DIRECTION ( 'NONE',  ( 1.000000000000000000, 0.0000000000000000000, -0.0000000000000000000 ) ) ;
#93 = CARTESIAN_POINT ( 'NONE',  ( 0.0000000000000000000, 0.0000000000000000000, 0.1250000000000000000 ) ) ;
#94 = DIRECTION ( 'NONE',  ( -0.0000000000000000000, -0.0000000000000000000, -1.000000000000000000 ) ) ;
#95 = DIRECTION ( 'NONE',  ( -1.000000000000000000, 0.0000000000000000000, 0.0000000000000000000 ) ) ;
#96 = CARTESIAN_POINT ( 'NONE',  ( 0.0000000000000000000, 0.0000000000000000000, 0.1250000000000000000 ) ) ;
#97 = DIRECTION ( 'NONE',  ( 1.000000000000000000, 0.0000000000000000000, 0.0000000000000000000 ) ) ;
#98 = DIRECTION ( 'NONE',  ( -0.0000000000000000000, -0.0000000000000000000, -1.000000000000000000 ) ) ;
#99 = DIRECTION ( 'NONE',  ( -1.000000000000000000, 0.0000000000000000000, 0.0000000000000000000 ) ) ;
#100 = DIRECTION ( 'NONE',  ( 1.000000000000000000, 0.0000000000000000000, 0.0000000000000000000 ) ) ;
#101 = DIRECTION ( 'NONE',  ( 0.0000000000000000000, 0.0000000000000000000, 1.000000000000000000 ) ) ;
#102 = CARTESIAN_POINT ( 'NONE',  ( 0.0000000000000000000, 0.0000000000000000000, 0.0000000000000000000 ) ) ;
#103 = DIRECTION ( 'NONE',  ( 1.000000000000000000, 0.0000000000000000000, 0.0000000000000000000 ) ) ;
#104 = CARTESIAN_POINT ( 'NONE',  ( 0.0000000000000000000, 0.0000000000000000000, 0.1250000000000000000 ) ) ;
#105 = DIRECTION ( 'NONE',  ( 0.0000000000000000000, 0.0000000000000000000, 1.000000000000000000 ) ) ;
#106 = DIRECTION ( 'NONE',  ( 0.0000000000000000000, 0.0000000000000000000, 1.000000000000000000 ) ) ;
#107 = DIRECTION ( 'NONE',  ( -0.0000000000000000000, -0.0000000000000000000, -1.000000000000000000 ) ) ;
#108 = CARTESIAN_POINT ( 'NONE',  ( -0.1250000000000000000, 0.0000000000000000000, 0.1250000000000000000 ) ) ;
#109 = LINE ( 'NONE', #108, #214 ) ;
#110 = CARTESIAN_POINT ( 'NONE',  ( 0.0000000000000000000, 0.0000000000000000000, 0.1250000000000000000 ) ) ;
#111 = DIRECTION ( 'NONE',  ( 1.000000000000000000, 0.0000000000000000000, 0.0000000000000000000 ) ) ;
#112 = DIRECTION ( 'NONE',  ( 0.0000000000000000000, 0.0000000000000000000, 1.000000000000000000 ) ) ;
#113 = CARTESIAN_POINT ( 'NONE',  ( 0.0000000000000000000, 0.0000000000000000000, 0.1250000000000000000 ) ) ;
#114 = CARTESIAN_POINT ( 'NONE',  ( 0.1250000000000000000, 1.530808498934191500E-017, 0.0000000000000000000 ) ) ;
#115 = CARTESIAN_POINT ( 'NONE',  ( 0.05450000000000000000, 6.674325055353074800E-018, 0.1250000000000000000 ) ) ;
#116 = CARTESIAN_POINT ( 'NONE',  ( -0.05450000000000000000, 0.0000000000000000000, 0.1250000000000000000 ) ) ;
#117 = CARTESIAN_POINT ( 'NONE',  ( 0.05450000000000000000, 6.674325055353074800E-018, 0.0000000000000000000 ) ) ;
#118 = CARTESIAN_POINT ( 'NONE',  ( 0.1250000000000000000, 1.530808498934191500E-017, 0.1250000000000000000 ) ) ;
#119 = CARTESIAN_POINT ( 'NONE',  ( -0.1250000000000000000, 0.0000000000000000000, 0.0000000000000000000 ) ) ;
#120 = CARTESIAN_POINT ( 'NONE',  ( -0.1250000000000000000, 0.0000000000000000000, 0.1250000000000000000 ) ) ;
#121 = CARTESIAN_POINT ( 'NONE',  ( -0.05450000000000000000, 0.0000000000000000000, 0.0000000000000000000 ) ) ;
#122 = ORIENTED_EDGE ( 'NONE', *, *, #194, .F. ) ;
#123 = ORIENTED_EDGE ( 'NONE', *, *, #190, .T. ) ;
#124 = ORIENTED_EDGE ( 'NONE', *, *, #168, .F. ) ;
#125 = ORIENTED_EDGE ( 'NONE', *, *, #193, .T. ) ;
#126 = ORIENTED_EDGE ( 'NONE', *, *, #169, .F. ) ;
#127 = ORIENTED_EDGE ( 'NONE', *, *, #165, .F. ) ;
#128 = ORIENTED_EDGE ( 'NONE', *, *, #167, .T. ) ;
#129 = ORIENTED_EDGE ( 'NONE', *, *, #165, .T. ) ;
#130 = VERTEX_POINT ( 'NONE', #121 ) ;
#131 = VERTEX_POINT ( 'NONE', #120 ) ;
#132 = VERTEX_POINT ( 'NONE', #119 ) ;
#133 = VERTEX_POINT ( 'NONE', #118 ) ;
#134 = VERTEX_POINT ( 'NONE', #117 ) ;
#135 = VERTEX_POINT ( 'NONE', #116 ) ;
#136 = VERTEX_POINT ( 'NONE', #115 ) ;
#137 = VERTEX_POINT ( 'NONE', #114 ) ;
#138 = EDGE_LOOP ( 'NONE', ( #128, #125 ) ) ;
#139 = EDGE_LOOP ( 'NONE', ( #155, #154, #153, #156 ) ) ;
#140 = EDGE_LOOP ( 'NONE', ( #129, #151, #152, #150 ) ) ;
#141 = EDGE_LOOP ( 'NONE', ( #149, #147, #148, #146 ) ) ;
#142 = EDGE_LOOP ( 'NONE', ( #127, #124 ) ) ;
#143 = EDGE_LOOP ( 'NONE', ( #126, #122 ) ) ;
#144 = EDGE_LOOP ( 'NONE', ( #123, #161 ) ) ;
#145 = EDGE_LOOP ( 'NONE', ( #159, #158, #157, #160 ) ) ;
#146 = ORIENTED_EDGE ( 'NONE', *, *, #166, .F. ) ;
#147 = ORIENTED_EDGE ( 'NONE', *, *, #192, .T. ) ;
#148 = ORIENTED_EDGE ( 'NONE', *, *, #194, .T. ) ;
#149 = ORIENTED_EDGE ( 'NONE', *, *, #193, .F. ) ;
#150 = ORIENTED_EDGE ( 'NONE', *, *, #191, .F. ) ;
#151 = ORIENTED_EDGE ( 'NONE', *, *, #210, .T. ) ;
#152 = ORIENTED_EDGE ( 'NONE', *, *, #190, .F. ) ;
#153 = ORIENTED_EDGE ( 'NONE', *, *, #191, .T. ) ;
#154 = ORIENTED_EDGE ( 'NONE', *, *, #168, .T. ) ;
#155 = ORIENTED_EDGE ( 'NONE', *, *, #210, .F. ) ;
#156 = ORIENTED_EDGE ( 'NONE', *, *, #188, .F. ) ;
#157 = ORIENTED_EDGE ( 'NONE', *, *, #166, .T. ) ;
#158 = ORIENTED_EDGE ( 'NONE', *, *, #167, .F. ) ;
#159 = ORIENTED_EDGE ( 'NONE', *, *, #192, .F. ) ;
#160 = ORIENTED_EDGE ( 'NONE', *, *, #169, .T. ) ;
#161 = ORIENTED_EDGE ( 'NONE', *, *, #188, .T. ) ;
#162 = PRODUCT_DEFINITION_FORMATION_WITH_SPECIFIED_SOURCE ( 'ANY', '', #200, .NOT_KNOWN. ) ;
#163 = AXIS2_PLACEMENT_3D ( 'NONE', #31, #46, #45 ) ;
#164 = LENGTH_MEASURE_WITH_UNIT ( LENGTH_MEASURE( 0.02539999999999999900 ), #36 );
#165 = EDGE_CURVE ( 'NONE', #135, #136, #177, .T. ) ;
#166 = EDGE_CURVE ( 'NONE', #131, #132, #109, .T. ) ;
#167 = EDGE_CURVE ( 'NONE', #131, #133, #176, .T. ) ;
#168 = EDGE_CURVE ( 'NONE', #136, #135, #189, .T. ) ;
#169 = EDGE_CURVE ( 'NONE', #132, #137, #201, .T. ) ;
#170 = ADVANCED_FACE ( 'NONE', ( #212 ), #222, .F. ) ;
#171 = ADVANCED_FACE ( 'NONE', ( #216 ), #221, .T. ) ;
#172 = ADVANCED_FACE ( 'NONE', ( #220, #14 ), #90, .F. ) ;
#173 = ADVANCED_FACE ( 'NONE', ( #15, #2 ), #85, .T. ) ;
#174 = ADVANCED_FACE ( 'NONE', ( #18 ), #17, .T. ) ;
#175 = ADVANCED_FACE ( 'NONE', ( #6 ), #5, .F. ) ;
#176 = CIRCLE ( 'NONE', #223, 0.1250000000000000000 ) ;
#177 = CIRCLE ( 'NONE', #219, 0.05450000000000000000 ) ;
#178 = PRODUCT_DEFINITION_SHAPE ( 'NONE', 'NONE',  #208 ) ;
#179 = MANIFOLD_SOLID_BREP ( 'Boss-Extrude1', #218 ) ;
#180 = PRODUCT_DEFINITION_CONTEXT ( 'detailed design', #185, 'design' ) ;
#181 = UNCERTAINTY_MEASURE_WITH_UNIT (LENGTH_MEASURE( 1.000000000000000100E-005 ), #47, 'distance_accuracy_value', 'NONE');
#182 = ADVANCED_BREP_SHAPE_REPRESENTATION ( 'H125B', ( #179, #163 ), #195 ) ;
#183 = UNCERTAINTY_MEASURE_WITH_UNIT (LENGTH_MEASURE( 1.000000000000000100E-005 ), #34, 'distance_accuracy_value', 'NONE');
#184 = UNCERTAINTY_MEASURE_WITH_UNIT (LENGTH_MEASURE( 1.000000000000000100E-005 ), #73, 'distance_accuracy_value', 'NONE');
#185 = APPLICATION_CONTEXT ( 'automotive_design' ) ;
#186 = APPLICATION_CONTEXT ( 'automotive_design' ) ;
#187 =( GEOMETRIC_REPRESENTATION_CONTEXT ( 3 ) GLOBAL_UNCERTAINTY_ASSIGNED_CONTEXT ( ( #184 ) ) GLOBAL_UNIT_ASSIGNED_CONTEXT ( ( #73, #72, #71 ) ) REPRESENTATION_CONTEXT ( 'NONE', 'WORKASPACE' ) );
#188 = EDGE_CURVE ( 'NONE', #134, #130, #202, .T. ) ;
#189 = CIRCLE ( 'NONE', #217, 0.05450000000000000000 ) ;
#190 = EDGE_CURVE ( 'NONE', #130, #134, #204, .T. ) ;
#191 = EDGE_CURVE ( 'NONE', #135, #130, #63, .T. ) ;
#192 = EDGE_CURVE ( 'NONE', #133, #137, #60, .T. ) ;
#193 = EDGE_CURVE ( 'NONE', #133, #131, #205, .T. ) ;
#194 = EDGE_CURVE ( 'NONE', #137, #132, #206, .T. ) ;
#195 =( GEOMETRIC_REPRESENTATION_CONTEXT ( 3 ) GLOBAL_UNCERTAINTY_ASSIGNED_CONTEXT ( ( #181 ) ) GLOBAL_UNIT_ASSIGNED_CONTEXT ( ( #47, #43, #41 ) ) REPRESENTATION_CONTEXT ( 'NONE', 'WORKASPACE' ) );
#196 =( GEOMETRIC_REPRESENTATION_CONTEXT ( 3 ) GLOBAL_UNCERTAINTY_ASSIGNED_CONTEXT ( ( #183 ) ) GLOBAL_UNIT_ASSIGNED_CONTEXT ( ( #34, #30, #27 ) ) REPRESENTATION_CONTEXT ( 'NONE', 'WORKASPACE' ) );
#197 = DIMENSIONAL_EXPONENTS ( 1.000000000000000000, 0.0000000000000000000, 0.0000000000000000000, 0.0000000000000000000, 0.0000000000000000000, 0.0000000000000000000, 0.0000000000000000000 ) ;
#198 = DIMENSIONAL_EXPONENTS ( 1.000000000000000000, 0.0000000000000000000, 0.0000000000000000000, 0.0000000000000000000, 0.0000000000000000000, 0.0000000000000000000, 0.0000000000000000000 ) ;
#199 = DIMENSIONAL_EXPONENTS ( 1.000000000000000000, 0.0000000000000000000, 0.0000000000000000000, 0.0000000000000000000, 0.0000000000000000000, 0.0000000000000000000, 0.0000000000000000000 ) ;
#200 = PRODUCT ( 'H125B', 'H125B', '', ( #42 ) ) ;
#201 = CIRCLE ( 'NONE', #211, 0.1250000000000000000 ) ;
#202 = CIRCLE ( 'NONE', #3, 0.05450000000000000000 ) ;
#203 = COLOUR_RGB ( '',0.5686274509803921400, 0.5686274509803921400, 0.5882352941176470800 ) ;
#204 = CIRCLE ( 'NONE', #19, 0.05450000000000000000 ) ;
#205 = CIRCLE ( 'NONE', #10, 0.1250000000000000000 ) ;
#206 = CIRCLE ( 'NONE', #24, 0.1250000000000000000 ) ;
#207 = COLOUR_RGB ( '',0.5686274509803921400, 0.5686274509803921400, 0.5882352941176470800 ) ;
#208 = PRODUCT_DEFINITION ( 'UNKNOWN', '', #162, #180 ) ;
#209 = PRODUCT_RELATED_PRODUCT_CATEGORY ( 'part', '', ( #200 ) ) ;
#210 = EDGE_CURVE ( 'NONE', #136, #134, #49, .T. ) ;
#211 = AXIS2_PLACEMENT_3D ( 'NONE', #102, #101, #97 ) ;
#212 = FACE_OUTER_BOUND ( 'NONE', #139, .T. ) ;
#213 = AXIS2_PLACEMENT_3D ( 'NONE', #93, #94, #95 ) ;
#214 = VECTOR ( 'NONE', #107, 39.37007874015748100 ) ;
#215 = AXIS2_PLACEMENT_3D ( 'NONE', #96, #98, #99 ) ;
#216 = FACE_OUTER_BOUND ( 'NONE', #145, .T. ) ;
#217 = AXIS2_PLACEMENT_3D ( 'NONE', #104, #105, #100 ) ;
#218 = CLOSED_SHELL ( 'NONE', ( #175, #174, #173, #172, #171, #170 ) ) ;
#219 = AXIS2_PLACEMENT_3D ( 'NONE', #113, #112, #111 ) ;
#220 = FACE_OUTER_BOUND ( 'NONE', #143, .T. ) ;
#221 = CYLINDRICAL_SURFACE ( 'NONE', #213, 0.1250000000000000000 ) ;
#222 = CYLINDRICAL_SURFACE ( 'NONE', #215, 0.05450000000000000000 ) ;
#223 = AXIS2_PLACEMENT_3D ( 'NONE', #110, #106, #103 ) ;
ENDSEC;
END-ISO-10303-21;
