ISO-10303-21;
HEADER;
FILE_DESCRIPTION (( 'STEP AP214' ),
    '1' );
FILE_NAME ('H125D-AU.step',
    '2012-04-20T20:58:39',
    ( '' ),
    ( '' ),
    'SwSTEP 2.0',
    'SolidWorks 2012',
    '' );
FILE_SCHEMA (( 'AUTOMOTIVE_DESIGN' ));
ENDSEC;

DATA;
#1 = AXIS2_PLACEMENT_3D ( 'NONE', #31, #30, #29 ) ;
#2 = AXIS2_PLACEMENT_3D ( 'NONE', #34, #33, #32 ) ;
#3 = AXIS2_PLACEMENT_3D ( 'NONE', #40, #36, #35 ) ;
#4 = UNCERTAINTY_MEASURE_WITH_UNIT (LENGTH_MEASURE( 1.000000000000000100E-005 ), #176, 'distance_accuracy_value', 'NONE');
#5 = UNCERTAINTY_MEASURE_WITH_UNIT (LENGTH_MEASURE( 1.000000000000000100E-005 ), #67, 'distance_accuracy_value', 'NONE');
#6 =( CONVERSION_BASED_UNIT ( 'INCH', #157 ) LENGTH_UNIT ( ) NAMED_UNIT ( #132 ) );
#7 =( LENGTH_UNIT ( ) NAMED_UNIT ( * ) SI_UNIT ( $, .METRE. ) );
#8 = LINE ( 'NONE', #9, #150 ) ;
#9 = CARTESIAN_POINT ( 'NONE',  ( -0.1405000000000000100, 0.0000000000000000000, 0.1250000000000000000 ) ) ;
#10 = DIRECTION ( 'NONE',  ( -0.0000000000000000000, -0.0000000000000000000, -1.000000000000000000 ) ) ;
#11 = DIRECTION ( 'NONE',  ( 1.000000000000000000, 0.0000000000000000000, 0.0000000000000000000 ) ) ;
#12 = DIRECTION ( 'NONE',  ( 0.0000000000000000000, 0.0000000000000000000, 1.000000000000000000 ) ) ;
#13 = CARTESIAN_POINT ( 'NONE',  ( 0.0000000000000000000, 0.0000000000000000000, 0.0000000000000000000 ) ) ;
#14 = DIRECTION ( 'NONE',  ( 1.000000000000000000, 0.0000000000000000000, 0.0000000000000000000 ) ) ;
#15 = DIRECTION ( 'NONE',  ( 0.0000000000000000000, 0.0000000000000000000, 1.000000000000000000 ) ) ;
#16 = DIRECTION ( 'NONE',  ( -0.0000000000000000000, -0.0000000000000000000, -1.000000000000000000 ) ) ;
#17 = CARTESIAN_POINT ( 'NONE',  ( 0.1405000000000000100, 1.720628752802031100E-017, 0.1250000000000000000 ) ) ;
#18 = LINE ( 'NONE', #17, #148 ) ;
#19 = DIRECTION ( 'NONE',  ( -0.0000000000000000000, -0.0000000000000000000, -1.000000000000000000 ) ) ;
#20 = CARTESIAN_POINT ( 'NONE',  ( 0.2500000000000000000, 3.061616997868383000E-017, 0.1250000000000000000 ) ) ;
#21 = LINE ( 'NONE', #20, #125 ) ;
#22 = CARTESIAN_POINT ( 'NONE',  ( 0.0000000000000000000, 0.0000000000000000000, 0.1250000000000000000 ) ) ;
#23 = DIRECTION ( 'NONE',  ( 1.000000000000000000, 0.0000000000000000000, 0.0000000000000000000 ) ) ;
#24 = DIRECTION ( 'NONE',  ( 0.0000000000000000000, 0.0000000000000000000, 1.000000000000000000 ) ) ;
#25 = CARTESIAN_POINT ( 'NONE',  ( 0.0000000000000000000, 0.0000000000000000000, 0.0000000000000000000 ) ) ;
#26 = DIRECTION ( 'NONE',  ( 1.000000000000000000, 0.0000000000000000000, 0.0000000000000000000 ) ) ;
#27 = DIRECTION ( 'NONE',  ( 0.0000000000000000000, 0.0000000000000000000, 1.000000000000000000 ) ) ;
#28 = CARTESIAN_POINT ( 'NONE',  ( 0.0000000000000000000, 0.0000000000000000000, 0.1250000000000000000 ) ) ;
#29 = DIRECTION ( 'NONE',  ( 1.000000000000000000, 0.0000000000000000000, 0.0000000000000000000 ) ) ;
#30 = DIRECTION ( 'NONE',  ( 0.0000000000000000000, 0.0000000000000000000, 1.000000000000000000 ) ) ;
#31 = CARTESIAN_POINT ( 'NONE',  ( 0.0000000000000000000, 0.0000000000000000000, 0.0000000000000000000 ) ) ;
#32 = DIRECTION ( 'NONE',  ( 1.000000000000000000, 0.0000000000000000000, 0.0000000000000000000 ) ) ;
#33 = DIRECTION ( 'NONE',  ( 0.0000000000000000000, 0.0000000000000000000, 1.000000000000000000 ) ) ;
#34 = CARTESIAN_POINT ( 'NONE',  ( 0.0000000000000000000, 0.0000000000000000000, 0.0000000000000000000 ) ) ;
#35 = DIRECTION ( 'NONE',  ( 1.000000000000000000, 0.0000000000000000000, 0.0000000000000000000 ) ) ;
#36 = DIRECTION ( 'NONE',  ( 0.0000000000000000000, 0.0000000000000000000, 1.000000000000000000 ) ) ;
#37 = DIRECTION ( 'NONE',  ( -0.0000000000000000000, -0.0000000000000000000, -1.000000000000000000 ) ) ;
#38 = CARTESIAN_POINT ( 'NONE',  ( -0.2500000000000000000, 0.0000000000000000000, 0.1250000000000000000 ) ) ;
#39 = LINE ( 'NONE', #38, #145 ) ;
#40 = CARTESIAN_POINT ( 'NONE',  ( 0.0000000000000000000, 0.0000000000000000000, 0.1250000000000000000 ) ) ;
#41 = DIRECTION ( 'NONE',  ( 1.000000000000000000, 0.0000000000000000000, 0.0000000000000000000 ) ) ;
#42 = DIRECTION ( 'NONE',  ( 0.0000000000000000000, 0.0000000000000000000, 1.000000000000000000 ) ) ;
#43 = CARTESIAN_POINT ( 'NONE',  ( 0.0000000000000000000, 0.0000000000000000000, 0.1250000000000000000 ) ) ;
#44 = DIRECTION ( 'NONE',  ( -1.000000000000000000, 0.0000000000000000000, 0.0000000000000000000 ) ) ;
#45 = DIRECTION ( 'NONE',  ( -0.0000000000000000000, -0.0000000000000000000, -1.000000000000000000 ) ) ;
#46 = CARTESIAN_POINT ( 'NONE',  ( 0.0000000000000000000, 0.0000000000000000000, 0.1250000000000000000 ) ) ;
#47 = DIRECTION ( 'NONE',  ( -1.000000000000000000, 0.0000000000000000000, 0.0000000000000000000 ) ) ;
#48 = DIRECTION ( 'NONE',  ( -0.0000000000000000000, -0.0000000000000000000, -1.000000000000000000 ) ) ;
#49 = CARTESIAN_POINT ( 'NONE',  ( 0.0000000000000000000, 0.0000000000000000000, 0.1250000000000000000 ) ) ;
#50 = DIRECTION ( 'NONE',  ( 1.000000000000000000, 0.0000000000000000000, -0.0000000000000000000 ) ) ;
#51 = DIRECTION ( 'NONE',  ( 0.0000000000000000000, 0.0000000000000000000, 1.000000000000000000 ) ) ;
#52 = CARTESIAN_POINT ( 'NONE',  ( 0.0000000000000000000, 0.0000000000000000000, 0.0000000000000000000 ) ) ;
#53 = PLANE ( 'NONE',  #129 ) ;
#54 = DIRECTION ( 'NONE',  ( -1.000000000000000000, 0.0000000000000000000, 0.0000000000000000000 ) ) ;
#55 = DIRECTION ( 'NONE',  ( -0.0000000000000000000, -0.0000000000000000000, -1.000000000000000000 ) ) ;
#56 = CARTESIAN_POINT ( 'NONE',  ( 0.0000000000000000000, 0.0000000000000000000, 0.1250000000000000000 ) ) ;
#57 = DIRECTION ( 'NONE',  ( -1.000000000000000000, 0.0000000000000000000, 0.0000000000000000000 ) ) ;
#58 = DIRECTION ( 'NONE',  ( -0.0000000000000000000, -0.0000000000000000000, -1.000000000000000000 ) ) ;
#59 = CARTESIAN_POINT ( 'NONE',  ( 0.0000000000000000000, 0.0000000000000000000, 0.1250000000000000000 ) ) ;
#60 = DIRECTION ( 'NONE',  ( 1.000000000000000000, 0.0000000000000000000, -0.0000000000000000000 ) ) ;
#61 = DIRECTION ( 'NONE',  ( 0.0000000000000000000, 0.0000000000000000000, 1.000000000000000000 ) ) ;
#62 = CARTESIAN_POINT ( 'NONE',  ( 0.0000000000000000000, 0.0000000000000000000, 0.1250000000000000000 ) ) ;
#63 = PLANE ( 'NONE',  #163 ) ;
#64 =( NAMED_UNIT ( * ) SI_UNIT ( $, .STERADIAN. ) SOLID_ANGLE_UNIT ( ) );
#65 = EDGE_LOOP ( 'NONE', ( #95, #104 ) ) ;
#66 =( NAMED_UNIT ( * ) PLANE_ANGLE_UNIT ( ) SI_UNIT ( $, .RADIAN. ) );
#67 =( CONVERSION_BASED_UNIT ( 'INCH', #168 ) LENGTH_UNIT ( ) NAMED_UNIT ( #133 ) );
#68 =( LENGTH_UNIT ( ) NAMED_UNIT ( * ) SI_UNIT ( $, .METRE. ) );
#69 = SURFACE_STYLE_USAGE ( .BOTH. , #71 ) ;
#70 = PRESENTATION_STYLE_ASSIGNMENT (( #69 ) ) ;
#71 = SURFACE_SIDE_STYLE ('',( #72 ) ) ;
#72 = SURFACE_STYLE_FILL_AREA ( #73 ) ;
#73 = FILL_AREA_STYLE ('',( #74 ) ) ;
#74 = FILL_AREA_STYLE_COLOUR ( '', #198 ) ;
#75 = CARTESIAN_POINT ( 'NONE',  ( -0.1405000000000000100, 0.0000000000000000000, 0.0000000000000000000 ) ) ;
#76 = CARTESIAN_POINT ( 'NONE',  ( -0.1405000000000000100, 0.0000000000000000000, 0.1250000000000000000 ) ) ;
#77 = CARTESIAN_POINT ( 'NONE',  ( 0.2500000000000000000, 3.061616997868383000E-017, 0.0000000000000000000 ) ) ;
#78 = CARTESIAN_POINT ( 'NONE',  ( -0.2500000000000000000, 0.0000000000000000000, 0.1250000000000000000 ) ) ;
#79 = CARTESIAN_POINT ( 'NONE',  ( -0.2500000000000000000, 0.0000000000000000000, 0.0000000000000000000 ) ) ;
#80 = CARTESIAN_POINT ( 'NONE',  ( 0.2500000000000000000, 3.061616997868383000E-017, 0.1250000000000000000 ) ) ;
#81 = CARTESIAN_POINT ( 'NONE',  ( 0.1405000000000000100, 1.720628752802031100E-017, 0.0000000000000000000 ) ) ;
#82 = CARTESIAN_POINT ( 'NONE',  ( 0.1405000000000000100, 1.720628752802031100E-017, 0.1250000000000000000 ) ) ;
#83 = VERTEX_POINT ( 'NONE', #82 ) ;
#84 = VERTEX_POINT ( 'NONE', #81 ) ;
#85 = VERTEX_POINT ( 'NONE', #80 ) ;
#86 = VERTEX_POINT ( 'NONE', #79 ) ;
#87 = VERTEX_POINT ( 'NONE', #78 ) ;
#88 = VERTEX_POINT ( 'NONE', #77 ) ;
#89 = VERTEX_POINT ( 'NONE', #76 ) ;
#90 = VERTEX_POINT ( 'NONE', #75 ) ;
#91 = ORIENTED_EDGE ( 'NONE', *, *, #209, .F. ) ;
#92 = ORIENTED_EDGE ( 'NONE', *, *, #213, .F. ) ;
#93 = ORIENTED_EDGE ( 'NONE', *, *, #218, .F. ) ;
#94 = ORIENTED_EDGE ( 'NONE', *, *, #211, .T. ) ;
#95 = ORIENTED_EDGE ( 'NONE', *, *, #219, .T. ) ;
#96 = ORIENTED_EDGE ( 'NONE', *, *, #221, .T. ) ;
#97 = ORIENTED_EDGE ( 'NONE', *, *, #209, .T. ) ;
#98 = ORIENTED_EDGE ( 'NONE', *, *, #217, .F. ) ;
#99 = ORIENTED_EDGE ( 'NONE', *, *, #212, .F. ) ;
#100 = ORIENTED_EDGE ( 'NONE', *, *, #210, .T. ) ;
#101 = ORIENTED_EDGE ( 'NONE', *, *, #214, .F. ) ;
#102 = ORIENTED_EDGE ( 'NONE', *, *, #213, .T. ) ;
#103 = ORIENTED_EDGE ( 'NONE', *, *, #210, .F. ) ;
#104 = ORIENTED_EDGE ( 'NONE', *, *, #212, .T. ) ;
#105 = ORIENTED_EDGE ( 'NONE', *, *, #215, .F. ) ;
#106 = ORIENTED_EDGE ( 'NONE', *, *, #216, .F. ) ;
#107 = ORIENTED_EDGE ( 'NONE', *, *, #215, .T. ) ;
#108 = ORIENTED_EDGE ( 'NONE', *, *, #216, .T. ) ;
#109 = ORIENTED_EDGE ( 'NONE', *, *, #214, .T. ) ;
#110 = ORIENTED_EDGE ( 'NONE', *, *, #211, .F. ) ;
#111 = ORIENTED_EDGE ( 'NONE', *, *, #217, .T. ) ;
#112 = ORIENTED_EDGE ( 'NONE', *, *, #219, .F. ) ;
#113 = ORIENTED_EDGE ( 'NONE', *, *, #221, .F. ) ;
#114 = ORIENTED_EDGE ( 'NONE', *, *, #218, .T. ) ;
#115 = EDGE_LOOP ( 'NONE', ( #106, #101, #100, #102 ) ) ;
#116 = EDGE_LOOP ( 'NONE', ( #98, #97, #96, #99 ) ) ;
#117 = EDGE_LOOP ( 'NONE', ( #109, #94 ) ) ;
#118 = EDGE_LOOP ( 'NONE', ( #114, #111, #112, #113 ) ) ;
#119 = EDGE_LOOP ( 'NONE', ( #110, #108, #107, #103 ) ) ;
#120 = EDGE_LOOP ( 'NONE', ( #93, #91 ) ) ;
#121 = EDGE_LOOP ( 'NONE', ( #92, #105 ) ) ;
#122 = FACE_OUTER_BOUND ( 'NONE', #115, .T. ) ;
#123 = CYLINDRICAL_SURFACE ( 'NONE', #128, 0.1405000000000000100 ) ;
#124 = AXIS2_PLACEMENT_3D ( 'NONE', #49, #48, #47 ) ;
#125 = VECTOR ( 'NONE', #19, 39.37007874015748100 ) ;
#126 = FACE_BOUND ( 'NONE', #65, .T. ) ;
#127 = FACE_OUTER_BOUND ( 'NONE', #116, .T. ) ;
#128 = AXIS2_PLACEMENT_3D ( 'NONE', #46, #45, #44 ) ;
#129 = AXIS2_PLACEMENT_3D ( 'NONE', #52, #51, #50 ) ;
#130 = AXIS2_PLACEMENT_3D ( 'NONE', #43, #42, #41 ) ;
#131 = CYLINDRICAL_SURFACE ( 'NONE', #124, 0.2500000000000000000 ) ;
#132 = DIMENSIONAL_EXPONENTS ( 1.000000000000000000, 0.0000000000000000000, 0.0000000000000000000, 0.0000000000000000000, 0.0000000000000000000, 0.0000000000000000000, 0.0000000000000000000 ) ;
#133 = DIMENSIONAL_EXPONENTS ( 1.000000000000000000, 0.0000000000000000000, 0.0000000000000000000, 0.0000000000000000000, 0.0000000000000000000, 0.0000000000000000000, 0.0000000000000000000 ) ;
#134 = DIMENSIONAL_EXPONENTS ( 1.000000000000000000, 0.0000000000000000000, 0.0000000000000000000, 0.0000000000000000000, 0.0000000000000000000, 0.0000000000000000000, 0.0000000000000000000 ) ;
#135 = PRODUCT ( 'H125D-AU', 'H125D-AU', '', ( #175 ) ) ;
#136 = AXIS2_PLACEMENT_3D ( 'NONE', #59, #58, #57 ) ;
#137 = CYLINDRICAL_SURFACE ( 'NONE', #138, 0.2500000000000000000 ) ;
#138 = AXIS2_PLACEMENT_3D ( 'NONE', #56, #55, #54 ) ;
#139 = CYLINDRICAL_SURFACE ( 'NONE', #136, 0.1405000000000000100 ) ;
#140 = PRODUCT_DEFINITION_CONTEXT ( 'detailed design', #222, 'design' ) ;
#141 = PRODUCT_DEFINITION_SHAPE ( 'NONE', 'NONE',  #193 ) ;
#142 = MANIFOLD_SOLID_BREP ( 'Boss-Extrude1', #172 ) ;
#143 = UNCERTAINTY_MEASURE_WITH_UNIT (LENGTH_MEASURE( 1.000000000000000100E-005 ), #6, 'distance_accuracy_value', 'NONE');
#144 = ADVANCED_BREP_SHAPE_REPRESENTATION ( 'H125D-AU', ( #142, #155 ), #159 ) ;
#145 = VECTOR ( 'NONE', #37, 39.37007874015748100 ) ;
#146 = AXIS2_PLACEMENT_3D ( 'NONE', #25, #24, #23 ) ;
#147 = AXIS2_PLACEMENT_3D ( 'NONE', #28, #27, #26 ) ;
#148 = VECTOR ( 'NONE', #16, 39.37007874015748100 ) ;
#149 = AXIS2_PLACEMENT_3D ( 'NONE', #22, #15, #14 ) ;
#150 = VECTOR ( 'NONE', #10, 39.37007874015748100 ) ;
#151 = STYLED_ITEM ( 'NONE', ( #185 ), #144 ) ;
#152 = PRESENTATION_LAYER_ASSIGNMENT (  '', '', ( #151 ) ) ;
#153 = MECHANICAL_DESIGN_GEOMETRIC_PRESENTATION_REPRESENTATION (  '', ( #151 ), #160 ) ;
#154 = LENGTH_MEASURE_WITH_UNIT ( LENGTH_MEASURE( 0.02539999999999999900 ), #179 );
#155 = AXIS2_PLACEMENT_3D ( 'NONE', #189, #190, #178 ) ;
#156 = PRODUCT_DEFINITION_FORMATION_WITH_SPECIFIED_SOURCE ( 'ANY', '', #135, .NOT_KNOWN. ) ;
#157 = LENGTH_MEASURE_WITH_UNIT ( LENGTH_MEASURE( 0.02539999999999999900 ), #7 );
#158 =( GEOMETRIC_REPRESENTATION_CONTEXT ( 3 ) GLOBAL_UNCERTAINTY_ASSIGNED_CONTEXT ( ( #5 ) ) GLOBAL_UNIT_ASSIGNED_CONTEXT ( ( #67, #66, #64 ) ) REPRESENTATION_CONTEXT ( 'NONE', 'WORKASPACE' ) );
#159 =( GEOMETRIC_REPRESENTATION_CONTEXT ( 3 ) GLOBAL_UNCERTAINTY_ASSIGNED_CONTEXT ( ( #143 ) ) GLOBAL_UNIT_ASSIGNED_CONTEXT ( ( #6, #191, #188 ) ) REPRESENTATION_CONTEXT ( 'NONE', 'WORKASPACE' ) );
#160 =( GEOMETRIC_REPRESENTATION_CONTEXT ( 3 ) GLOBAL_UNCERTAINTY_ASSIGNED_CONTEXT ( ( #4 ) ) GLOBAL_UNIT_ASSIGNED_CONTEXT ( ( #176, #177, #173 ) ) REPRESENTATION_CONTEXT ( 'NONE', 'WORKASPACE' ) );
#161 = FACE_OUTER_BOUND ( 'NONE', #119, .T. ) ;
#162 = FACE_OUTER_BOUND ( 'NONE', #118, .T. ) ;
#163 = AXIS2_PLACEMENT_3D ( 'NONE', #62, #61, #60 ) ;
#164 = FACE_OUTER_BOUND ( 'NONE', #121, .T. ) ;
#165 = FACE_OUTER_BOUND ( 'NONE', #117, .T. ) ;
#166 = AXIS2_PLACEMENT_3D ( 'NONE', #13, #12, #11 ) ;
#167 = STYLED_ITEM ( 'NONE', ( #70 ), #142 ) ;
#168 = LENGTH_MEASURE_WITH_UNIT ( LENGTH_MEASURE( 0.02539999999999999900 ), #68 );
#169 = PRESENTATION_LAYER_ASSIGNMENT (  '', '', ( #167 ) ) ;
#170 = MECHANICAL_DESIGN_GEOMETRIC_PRESENTATION_REPRESENTATION (  '', ( #167 ), #158 ) ;
#171 = FACE_BOUND ( 'NONE', #120, .T. ) ;
#172 = CLOSED_SHELL ( 'NONE', ( #204, #205, #203, #206, #207, #208 ) ) ;
#173 =( NAMED_UNIT ( * ) SI_UNIT ( $, .STERADIAN. ) SOLID_ANGLE_UNIT ( ) );
#174 = APPLICATION_PROTOCOL_DEFINITION ( 'draft international standard', 'automotive_design', 1998, #222 ) ;
#175 = PRODUCT_CONTEXT ( 'NONE', #223, 'mechanical' ) ;
#176 =( CONVERSION_BASED_UNIT ( 'INCH', #154 ) LENGTH_UNIT ( ) NAMED_UNIT ( #134 ) );
#177 =( NAMED_UNIT ( * ) PLANE_ANGLE_UNIT ( ) SI_UNIT ( $, .RADIAN. ) );
#178 = DIRECTION ( 'NONE',  ( 1.000000000000000000, 0.0000000000000000000, 0.0000000000000000000 ) ) ;
#179 =( LENGTH_UNIT ( ) NAMED_UNIT ( * ) SI_UNIT ( $, .METRE. ) );
#180 = SURFACE_SIDE_STYLE ('',( #181 ) ) ;
#181 = SURFACE_STYLE_FILL_AREA ( #182 ) ;
#182 = FILL_AREA_STYLE ('',( #186 ) ) ;
#183 = APPLICATION_PROTOCOL_DEFINITION ( 'draft international standard', 'automotive_design', 1998, #223 ) ;
#184 = SURFACE_STYLE_USAGE ( .BOTH. , #180 ) ;
#185 = PRESENTATION_STYLE_ASSIGNMENT (( #184 ) ) ;
#186 = FILL_AREA_STYLE_COLOUR ( '', #194 ) ;
#187 = SHAPE_DEFINITION_REPRESENTATION ( #141, #144 ) ;
#188 =( NAMED_UNIT ( * ) SI_UNIT ( $, .STERADIAN. ) SOLID_ANGLE_UNIT ( ) );
#189 = CARTESIAN_POINT ( 'NONE',  ( 0.0000000000000000000, 0.0000000000000000000, 0.0000000000000000000 ) ) ;
#190 = DIRECTION ( 'NONE',  ( 0.0000000000000000000, 0.0000000000000000000, 1.000000000000000000 ) ) ;
#191 =( NAMED_UNIT ( * ) PLANE_ANGLE_UNIT ( ) SI_UNIT ( $, .RADIAN. ) );
#192 = PRODUCT_RELATED_PRODUCT_CATEGORY ( 'part', '', ( #135 ) ) ;
#193 = PRODUCT_DEFINITION ( 'UNKNOWN', '', #156, #140 ) ;
#194 = COLOUR_RGB ( '',0.9686274509803921600, 0.8784313725490196000, 0.5999999999999999800 ) ;
#195 = CIRCLE ( 'NONE', #166, 0.1405000000000000100 ) ;
#196 = CIRCLE ( 'NONE', #149, 0.1405000000000000100 ) ;
#197 = CIRCLE ( 'NONE', #146, 0.2500000000000000000 ) ;
#198 = COLOUR_RGB ( '',0.9686274509803921600, 0.8784313725490196000, 0.5999999999999999800 ) ;
#199 = CIRCLE ( 'NONE', #147, 0.2500000000000000000 ) ;
#200 = CIRCLE ( 'NONE', #130, 0.1405000000000000100 ) ;
#201 = CIRCLE ( 'NONE', #3, 0.2500000000000000000 ) ;
#202 = CIRCLE ( 'NONE', #2, 0.1405000000000000100 ) ;
#203 = ADVANCED_FACE ( 'NONE', ( #165, #171 ), #63, .T. ) ;
#204 = ADVANCED_FACE ( 'NONE', ( #162 ), #139, .F. ) ;
#205 = ADVANCED_FACE ( 'NONE', ( #161 ), #137, .T. ) ;
#206 = ADVANCED_FACE ( 'NONE', ( #164, #126 ), #53, .F. ) ;
#207 = ADVANCED_FACE ( 'NONE', ( #122 ), #131, .T. ) ;
#208 = ADVANCED_FACE ( 'NONE', ( #127 ), #123, .F. ) ;
#209 = EDGE_CURVE ( 'NONE', #83, #89, #200, .T. ) ;
#210 = EDGE_CURVE ( 'NONE', #87, #86, #39, .T. ) ;
#211 = EDGE_CURVE ( 'NONE', #85, #87, #201, .T. ) ;
#212 = EDGE_CURVE ( 'NONE', #84, #90, #202, .T. ) ;
#213 = EDGE_CURVE ( 'NONE', #86, #88, #220, .T. ) ;
#214 = EDGE_CURVE ( 'NONE', #87, #85, #199, .T. ) ;
#215 = EDGE_CURVE ( 'NONE', #88, #86, #197, .T. ) ;
#216 = EDGE_CURVE ( 'NONE', #85, #88, #21, .T. ) ;
#217 = EDGE_CURVE ( 'NONE', #83, #84, #18, .T. ) ;
#218 = EDGE_CURVE ( 'NONE', #89, #83, #196, .T. ) ;
#219 = EDGE_CURVE ( 'NONE', #90, #84, #195, .T. ) ;
#220 = CIRCLE ( 'NONE', #1, 0.2500000000000000000 ) ;
#221 = EDGE_CURVE ( 'NONE', #89, #90, #8, .T. ) ;
#222 = APPLICATION_CONTEXT ( 'automotive_design' ) ;
#223 = APPLICATION_CONTEXT ( 'automotive_design' ) ;
ENDSEC;
END-ISO-10303-21;
