ISO-10303-21;
HEADER;
FILE_DESCRIPTION (( 'STEP AP214' ),
    '1' );
FILE_NAME ('H125D-BE.step',
    '2012-04-20T20:58:41',
    ( '' ),
    ( '' ),
    'SwSTEP 2.0',
    'SolidWorks 2012',
    '' );
FILE_SCHEMA (( 'AUTOMOTIVE_DESIGN' ));
ENDSEC;

DATA;
#1 = CYLINDRICAL_SURFACE ( 'NONE', #2, 0.2500000000000000000 ) ;
#2 = AXIS2_PLACEMENT_3D ( 'NONE', #259, #258, #257 ) ;
#3 =( CONVERSION_BASED_UNIT ( 'INCH', #107 ) LENGTH_UNIT ( ) NAMED_UNIT ( #133 ) );
#4 =( LENGTH_UNIT ( ) NAMED_UNIT ( * ) SI_UNIT ( $, .METRE. ) );
#5 = PRESENTATION_STYLE_ASSIGNMENT (( #6 ) ) ;
#6 = SURFACE_STYLE_USAGE ( .BOTH. , #7 ) ;
#7 = SURFACE_SIDE_STYLE ('',( #8 ) ) ;
#8 = SURFACE_STYLE_FILL_AREA ( #9 ) ;
#9 = FILL_AREA_STYLE ('',( #10 ) ) ;
#10 = FILL_AREA_STYLE_COLOUR ( '', #292 ) ;
#11 = DIRECTION ( 'NONE',  ( -1.000000000000000000, 0.0000000000000000000, 0.0000000000000000000 ) ) ;
#12 = DIRECTION ( 'NONE',  ( -0.0000000000000000000, -0.0000000000000000000, -1.000000000000000000 ) ) ;
#13 = CARTESIAN_POINT ( 'NONE',  ( 0.0000000000000000000, 0.0000000000000000000, 0.1250000000000000000 ) ) ;
#14 =( NAMED_UNIT ( * ) SI_UNIT ( $, .STERADIAN. ) SOLID_ANGLE_UNIT ( ) );
#15 =( NAMED_UNIT ( * ) PLANE_ANGLE_UNIT ( ) SI_UNIT ( $, .RADIAN. ) );
#16 =( CONVERSION_BASED_UNIT ( 'INCH', #110 ) LENGTH_UNIT ( ) NAMED_UNIT ( #132 ) );
#17 =( LENGTH_UNIT ( ) NAMED_UNIT ( * ) SI_UNIT ( $, .METRE. ) );
#18 = PRESENTATION_STYLE_ASSIGNMENT (( #19 ) ) ;
#19 = SURFACE_STYLE_USAGE ( .BOTH. , #20 ) ;
#20 = SURFACE_SIDE_STYLE ('',( #21 ) ) ;
#21 = SURFACE_STYLE_FILL_AREA ( #22 ) ;
#22 = FILL_AREA_STYLE ('',( #23 ) ) ;
#23 = FILL_AREA_STYLE_COLOUR ( '', #301 ) ;
#24 = DIRECTION ( 'NONE',  ( -1.000000000000000000, 0.0000000000000000000, 0.0000000000000000000 ) ) ;
#25 = DIRECTION ( 'NONE',  ( -0.0000000000000000000, -0.0000000000000000000, -1.000000000000000000 ) ) ;
#26 = CARTESIAN_POINT ( 'NONE',  ( 0.0000000000000000000, 0.0000000000000000000, 0.1250000000000000000 ) ) ;
#27 =( NAMED_UNIT ( * ) SI_UNIT ( $, .STERADIAN. ) SOLID_ANGLE_UNIT ( ) );
#28 =( NAMED_UNIT ( * ) PLANE_ANGLE_UNIT ( ) SI_UNIT ( $, .RADIAN. ) );
#29 =( CONVERSION_BASED_UNIT ( 'INCH', #106 ) LENGTH_UNIT ( ) NAMED_UNIT ( #131 ) );
#30 =( LENGTH_UNIT ( ) NAMED_UNIT ( * ) SI_UNIT ( $, .METRE. ) );
#31 = PRESENTATION_STYLE_ASSIGNMENT (( #32 ) ) ;
#32 = SURFACE_STYLE_USAGE ( .BOTH. , #33 ) ;
#33 = SURFACE_SIDE_STYLE ('',( #34 ) ) ;
#34 = SURFACE_STYLE_FILL_AREA ( #35 ) ;
#35 = FILL_AREA_STYLE ('',( #36 ) ) ;
#36 = FILL_AREA_STYLE_COLOUR ( '', #299 ) ;
#37 = EDGE_LOOP ( 'NONE', ( #69, #73 ) ) ;
#38 = EDGE_LOOP ( 'NONE', ( #67, #71, #74, #75 ) ) ;
#39 = EDGE_LOOP ( 'NONE', ( #72, #70, #87, #79 ) ) ;
#40 =( NAMED_UNIT ( * ) SI_UNIT ( $, .STERADIAN. ) SOLID_ANGLE_UNIT ( ) );
#41 =( NAMED_UNIT ( * ) PLANE_ANGLE_UNIT ( ) SI_UNIT ( $, .RADIAN. ) );
#42 =( CONVERSION_BASED_UNIT ( 'INCH', #169 ) LENGTH_UNIT ( ) NAMED_UNIT ( #130 ) );
#43 =( LENGTH_UNIT ( ) NAMED_UNIT ( * ) SI_UNIT ( $, .METRE. ) );
#44 = PRESENTATION_STYLE_ASSIGNMENT (( #45 ) ) ;
#45 = SURFACE_STYLE_USAGE ( .BOTH. , #46 ) ;
#46 = SURFACE_SIDE_STYLE ('',( #47 ) ) ;
#47 = SURFACE_STYLE_FILL_AREA ( #48 ) ;
#48 = FILL_AREA_STYLE ('',( #49 ) ) ;
#49 = FILL_AREA_STYLE_COLOUR ( '', #297 ) ;
#50 = CARTESIAN_POINT ( 'NONE',  ( 0.1405000000000000100, 1.720628752802031100E-017, 0.1250000000000000000 ) ) ;
#51 = CARTESIAN_POINT ( 'NONE',  ( -0.1405000000000000100, 0.0000000000000000000, 0.1250000000000000000 ) ) ;
#52 = CARTESIAN_POINT ( 'NONE',  ( -0.2500000000000000000, 0.0000000000000000000, 0.0000000000000000000 ) ) ;
#53 = CARTESIAN_POINT ( 'NONE',  ( 0.2500000000000000000, 3.061616997868383000E-017, 0.0000000000000000000 ) ) ;
#54 = CARTESIAN_POINT ( 'NONE',  ( -0.2500000000000000000, 0.0000000000000000000, 0.1250000000000000000 ) ) ;
#55 = CARTESIAN_POINT ( 'NONE',  ( 0.2500000000000000000, 3.061616997868383000E-017, 0.1250000000000000000 ) ) ;
#56 = CARTESIAN_POINT ( 'NONE',  ( -0.1405000000000000100, 0.0000000000000000000, 0.0000000000000000000 ) ) ;
#57 = CARTESIAN_POINT ( 'NONE',  ( 0.1405000000000000100, 1.720628752802031100E-017, 0.0000000000000000000 ) ) ;
#58 = VERTEX_POINT ( 'NONE', #57 ) ;
#59 = VERTEX_POINT ( 'NONE', #56 ) ;
#60 = VERTEX_POINT ( 'NONE', #55 ) ;
#61 = VERTEX_POINT ( 'NONE', #54 ) ;
#62 = VERTEX_POINT ( 'NONE', #53 ) ;
#63 = VERTEX_POINT ( 'NONE', #52 ) ;
#64 = VERTEX_POINT ( 'NONE', #51 ) ;
#65 = VERTEX_POINT ( 'NONE', #50 ) ;
#66 = ORIENTED_EDGE ( 'NONE', *, *, #313, .T. ) ;
#67 = ORIENTED_EDGE ( 'NONE', *, *, #308, .F. ) ;
#68 = ORIENTED_EDGE ( 'NONE', *, *, #307, .F. ) ;
#69 = ORIENTED_EDGE ( 'NONE', *, *, #314, .T. ) ;
#70 = ORIENTED_EDGE ( 'NONE', *, *, #307, .T. ) ;
#71 = ORIENTED_EDGE ( 'NONE', *, *, #312, .F. ) ;
#72 = ORIENTED_EDGE ( 'NONE', *, *, #310, .F. ) ;
#73 = ORIENTED_EDGE ( 'NONE', *, *, #316, .T. ) ;
#74 = ORIENTED_EDGE ( 'NONE', *, *, #315, .T. ) ;
#75 = ORIENTED_EDGE ( 'NONE', *, *, #309, .T. ) ;
#76 = ORIENTED_EDGE ( 'NONE', *, *, #309, .F. ) ;
#77 = ORIENTED_EDGE ( 'NONE', *, *, #317, .F. ) ;
#78 = ORIENTED_EDGE ( 'NONE', *, *, #315, .F. ) ;
#79 = ORIENTED_EDGE ( 'NONE', *, *, #316, .F. ) ;
#80 = ORIENTED_EDGE ( 'NONE', *, *, #308, .T. ) ;
#81 = ORIENTED_EDGE ( 'NONE', *, *, #310, .T. ) ;
#82 = ORIENTED_EDGE ( 'NONE', *, *, #314, .F. ) ;
#83 = ORIENTED_EDGE ( 'NONE', *, *, #319, .F. ) ;
#84 = ORIENTED_EDGE ( 'NONE', *, *, #311, .T. ) ;
#85 = ORIENTED_EDGE ( 'NONE', *, *, #311, .F. ) ;
#86 = ORIENTED_EDGE ( 'NONE', *, *, #313, .F. ) ;
#87 = ORIENTED_EDGE ( 'NONE', *, *, #319, .T. ) ;
#88 = ORIENTED_EDGE ( 'NONE', *, *, #312, .T. ) ;
#89 = ORIENTED_EDGE ( 'NONE', *, *, #317, .T. ) ;
#90 = EDGE_LOOP ( 'NONE', ( #88, #66 ) ) ;
#91 = EDGE_LOOP ( 'NONE', ( #84, #81, #82, #83 ) ) ;
#92 = EDGE_LOOP ( 'NONE', ( #86, #80, #89, #78 ) ) ;
#93 = EDGE_LOOP ( 'NONE', ( #85, #68 ) ) ;
#94 = EDGE_LOOP ( 'NONE', ( #76, #77 ) ) ;
#95 =( GEOMETRIC_REPRESENTATION_CONTEXT ( 3 ) GLOBAL_UNCERTAINTY_ASSIGNED_CONTEXT ( ( #124 ) ) GLOBAL_UNIT_ASSIGNED_CONTEXT ( ( #215, #214, #213 ) ) REPRESENTATION_CONTEXT ( 'NONE', 'WORKASPACE' ) );
#96 =( GEOMETRIC_REPRESENTATION_CONTEXT ( 3 ) GLOBAL_UNCERTAINTY_ASSIGNED_CONTEXT ( ( #126 ) ) GLOBAL_UNIT_ASSIGNED_CONTEXT ( ( #206, #205, #204 ) ) REPRESENTATION_CONTEXT ( 'NONE', 'WORKASPACE' ) );
#97 =( GEOMETRIC_REPRESENTATION_CONTEXT ( 3 ) GLOBAL_UNCERTAINTY_ASSIGNED_CONTEXT ( ( #125 ) ) GLOBAL_UNIT_ASSIGNED_CONTEXT ( ( #195, #194, #193 ) ) REPRESENTATION_CONTEXT ( 'NONE', 'WORKASPACE' ) );
#98 = MECHANICAL_DESIGN_GEOMETRIC_PRESENTATION_REPRESENTATION (  '', ( #101 ), #183 ) ;
#99 = PRESENTATION_LAYER_ASSIGNMENT (  '', '', ( #101 ) ) ;
#100 = MECHANICAL_DESIGN_GEOMETRIC_PRESENTATION_REPRESENTATION (  '', ( #177 ), #184 ) ;
#101 = STYLED_ITEM ( 'NONE', ( #18 ), #303 ) ;
#102 = CYLINDRICAL_SURFACE ( 'NONE', #103, 0.2500000000000000000 ) ;
#103 = AXIS2_PLACEMENT_3D ( 'NONE', #13, #12, #11 ) ;
#104 = PRESENTATION_LAYER_ASSIGNMENT (  '', '', ( #325 ) ) ;
#105 = PRESENTATION_LAYER_ASSIGNMENT (  '', '', ( #177 ) ) ;
#106 = LENGTH_MEASURE_WITH_UNIT ( LENGTH_MEASURE( 0.02539999999999999900 ), #30 );
#107 = LENGTH_MEASURE_WITH_UNIT ( LENGTH_MEASURE( 0.02539999999999999900 ), #4 );
#108 = FACE_OUTER_BOUND ( 'NONE', #90, .T. ) ;
#109 = FACE_OUTER_BOUND ( 'NONE', #94, .T. ) ;
#110 = LENGTH_MEASURE_WITH_UNIT ( LENGTH_MEASURE( 0.02539999999999999900 ), #17 );
#111 = STYLED_ITEM ( 'NONE', ( #268 ), #305 ) ;
#112 = FACE_BOUND ( 'NONE', #37, .T. ) ;
#113 = MECHANICAL_DESIGN_GEOMETRIC_PRESENTATION_REPRESENTATION (  '', ( #176 ), #185 ) ;
#114 = FACE_BOUND ( 'NONE', #93, .T. ) ;
#115 = AXIS2_PLACEMENT_3D ( 'NONE', #281, #276, #274 ) ;
#116 = PRESENTATION_LAYER_ASSIGNMENT (  '', '', ( #176 ) ) ;
#117 = PRODUCT_DEFINITION_CONTEXT ( 'detailed design', #327, 'design' ) ;
#118 = PRODUCT_DEFINITION_SHAPE ( 'NONE', 'NONE',  #323 ) ;
#119 = MANIFOLD_SOLID_BREP ( 'Boss-Extrude1', #179 ) ;
#120 = UNCERTAINTY_MEASURE_WITH_UNIT (LENGTH_MEASURE( 1.000000000000000100E-005 ), #262, 'distance_accuracy_value', 'NONE');
#121 = UNCERTAINTY_MEASURE_WITH_UNIT (LENGTH_MEASURE( 1.000000000000000100E-005 ), #3, 'distance_accuracy_value', 'NONE');
#122 = UNCERTAINTY_MEASURE_WITH_UNIT (LENGTH_MEASURE( 1.000000000000000100E-005 ), #265, 'distance_accuracy_value', 'NONE');
#123 = UNCERTAINTY_MEASURE_WITH_UNIT (LENGTH_MEASURE( 1.000000000000000100E-005 ), #29, 'distance_accuracy_value', 'NONE');
#124 = UNCERTAINTY_MEASURE_WITH_UNIT (LENGTH_MEASURE( 1.000000000000000100E-005 ), #215, 'distance_accuracy_value', 'NONE');
#125 = UNCERTAINTY_MEASURE_WITH_UNIT (LENGTH_MEASURE( 1.000000000000000100E-005 ), #195, 'distance_accuracy_value', 'NONE');
#126 = UNCERTAINTY_MEASURE_WITH_UNIT (LENGTH_MEASURE( 1.000000000000000100E-005 ), #206, 'distance_accuracy_value', 'NONE');
#127 = UNCERTAINTY_MEASURE_WITH_UNIT (LENGTH_MEASURE( 1.000000000000000100E-005 ), #42, 'distance_accuracy_value', 'NONE');
#128 = ADVANCED_BREP_SHAPE_REPRESENTATION ( 'H125D-BE', ( #119, #166 ), #96 ) ;
#129 = UNCERTAINTY_MEASURE_WITH_UNIT (LENGTH_MEASURE( 1.000000000000000100E-005 ), #16, 'distance_accuracy_value', 'NONE');
#130 = DIMENSIONAL_EXPONENTS ( 1.000000000000000000, 0.0000000000000000000, 0.0000000000000000000, 0.0000000000000000000, 0.0000000000000000000, 0.0000000000000000000, 0.0000000000000000000 ) ;
#131 = DIMENSIONAL_EXPONENTS ( 1.000000000000000000, 0.0000000000000000000, 0.0000000000000000000, 0.0000000000000000000, 0.0000000000000000000, 0.0000000000000000000, 0.0000000000000000000 ) ;
#132 = DIMENSIONAL_EXPONENTS ( 1.000000000000000000, 0.0000000000000000000, 0.0000000000000000000, 0.0000000000000000000, 0.0000000000000000000, 0.0000000000000000000, 0.0000000000000000000 ) ;
#133 = DIMENSIONAL_EXPONENTS ( 1.000000000000000000, 0.0000000000000000000, 0.0000000000000000000, 0.0000000000000000000, 0.0000000000000000000, 0.0000000000000000000, 0.0000000000000000000 ) ;
#134 = DIMENSIONAL_EXPONENTS ( 1.000000000000000000, 0.0000000000000000000, 0.0000000000000000000, 0.0000000000000000000, 0.0000000000000000000, 0.0000000000000000000, 0.0000000000000000000 ) ;
#135 = DIMENSIONAL_EXPONENTS ( 1.000000000000000000, 0.0000000000000000000, 0.0000000000000000000, 0.0000000000000000000, 0.0000000000000000000, 0.0000000000000000000, 0.0000000000000000000 ) ;
#136 = DIMENSIONAL_EXPONENTS ( 1.000000000000000000, 0.0000000000000000000, 0.0000000000000000000, 0.0000000000000000000, 0.0000000000000000000, 0.0000000000000000000, 0.0000000000000000000 ) ;
#137 = PRODUCT ( 'H125D-BE', 'H125D-BE', '', ( #188 ) ) ;
#138 = DIMENSIONAL_EXPONENTS ( 1.000000000000000000, 0.0000000000000000000, 0.0000000000000000000, 0.0000000000000000000, 0.0000000000000000000, 0.0000000000000000000, 0.0000000000000000000 ) ;
#139 = DIMENSIONAL_EXPONENTS ( 1.000000000000000000, 0.0000000000000000000, 0.0000000000000000000, 0.0000000000000000000, 0.0000000000000000000, 0.0000000000000000000, 0.0000000000000000000 ) ;
#140 = LENGTH_MEASURE_WITH_UNIT ( LENGTH_MEASURE( 0.02539999999999999900 ), #267 );
#141 = MECHANICAL_DESIGN_GEOMETRIC_PRESENTATION_REPRESENTATION (  '', ( #325 ), #182 ) ;
#142 = LENGTH_MEASURE_WITH_UNIT ( LENGTH_MEASURE( 0.02539999999999999900 ), #263 );
#143 = AXIS2_PLACEMENT_3D ( 'NONE', #241, #240, #239 ) ;
#144 = STYLED_ITEM ( 'NONE', ( #217 ), #318 ) ;
#145 = AXIS2_PLACEMENT_3D ( 'NONE', #253, #249, #248 ) ;
#146 = VECTOR ( 'NONE', #250, 39.37007874015748100 ) ;
#147 = AXIS2_PLACEMENT_3D ( 'NONE', #247, #243, #242 ) ;
#148 = VECTOR ( 'NONE', #244, 39.37007874015748100 ) ;
#149 = AXIS2_PLACEMENT_3D ( 'NONE', #235, #234, #233 ) ;
#150 = AXIS2_PLACEMENT_3D ( 'NONE', #238, #237, #236 ) ;
#151 = AXIS2_PLACEMENT_3D ( 'NONE', #226, #225, #224 ) ;
#152 = AXIS2_PLACEMENT_3D ( 'NONE', #232, #228, #227 ) ;
#153 = FACE_OUTER_BOUND ( 'NONE', #91, .T. ) ;
#154 = VECTOR ( 'NONE', #229, 39.37007874015748100 ) ;
#155 = AXIS2_PLACEMENT_3D ( 'NONE', #223, #212, #211 ) ;
#156 = LENGTH_MEASURE_WITH_UNIT ( LENGTH_MEASURE( 0.02539999999999999900 ), #207 );
#157 = CYLINDRICAL_SURFACE ( 'NONE', #155, 0.1405000000000000100 ) ;
#158 = PRESENTATION_LAYER_ASSIGNMENT (  '', '', ( #144 ) ) ;
#159 = MECHANICAL_DESIGN_GEOMETRIC_PRESENTATION_REPRESENTATION (  '', ( #144 ), #95 ) ;
#160 = LENGTH_MEASURE_WITH_UNIT ( LENGTH_MEASURE( 0.02539999999999999900 ), #216 );
#161 = VECTOR ( 'NONE', #208, 39.37007874015748100 ) ;
#162 = STYLED_ITEM ( 'NONE', ( #197 ), #128 ) ;
#163 = PRESENTATION_LAYER_ASSIGNMENT (  '', '', ( #162 ) ) ;
#164 = MECHANICAL_DESIGN_GEOMETRIC_PRESENTATION_REPRESENTATION (  '', ( #162 ), #97 ) ;
#165 = LENGTH_MEASURE_WITH_UNIT ( LENGTH_MEASURE( 0.02539999999999999900 ), #196 );
#166 = AXIS2_PLACEMENT_3D ( 'NONE', #192, #191, #190 ) ;
#167 = PRODUCT_DEFINITION_FORMATION_WITH_SPECIFIED_SOURCE ( 'ANY', '', #137, .NOT_KNOWN. ) ;
#168 = FACE_OUTER_BOUND ( 'NONE', #92, .T. ) ;
#169 = LENGTH_MEASURE_WITH_UNIT ( LENGTH_MEASURE( 0.02539999999999999900 ), #43 );
#170 = FACE_OUTER_BOUND ( 'NONE', #38, .T. ) ;
#171 = STYLED_ITEM ( 'NONE', ( #44 ), #119 ) ;
#172 = MECHANICAL_DESIGN_GEOMETRIC_PRESENTATION_REPRESENTATION (  '', ( #171 ), #180 ) ;
#173 = CYLINDRICAL_SURFACE ( 'NONE', #174, 0.1405000000000000100 ) ;
#174 = AXIS2_PLACEMENT_3D ( 'NONE', #26, #25, #24 ) ;
#175 = FACE_OUTER_BOUND ( 'NONE', #39, .T. ) ;
#176 = STYLED_ITEM ( 'NONE', ( #5 ), #304 ) ;
#177 = STYLED_ITEM ( 'NONE', ( #31 ), #302 ) ;
#178 = PRESENTATION_LAYER_ASSIGNMENT (  '', '', ( #171 ) ) ;
#179 = CLOSED_SHELL ( 'NONE', ( #318, #306, #305, #304, #303, #302 ) ) ;
#180 =( GEOMETRIC_REPRESENTATION_CONTEXT ( 3 ) GLOBAL_UNCERTAINTY_ASSIGNED_CONTEXT ( ( #127 ) ) GLOBAL_UNIT_ASSIGNED_CONTEXT ( ( #42, #41, #40 ) ) REPRESENTATION_CONTEXT ( 'NONE', 'WORKASPACE' ) );
#181 =( GEOMETRIC_REPRESENTATION_CONTEXT ( 3 ) GLOBAL_UNCERTAINTY_ASSIGNED_CONTEXT ( ( #122 ) ) GLOBAL_UNIT_ASSIGNED_CONTEXT ( ( #265, #266, #186 ) ) REPRESENTATION_CONTEXT ( 'NONE', 'WORKASPACE' ) );
#182 =( GEOMETRIC_REPRESENTATION_CONTEXT ( 3 ) GLOBAL_UNCERTAINTY_ASSIGNED_CONTEXT ( ( #120 ) ) GLOBAL_UNIT_ASSIGNED_CONTEXT ( ( #262, #261, #260 ) ) REPRESENTATION_CONTEXT ( 'NONE', 'WORKASPACE' ) );
#183 =( GEOMETRIC_REPRESENTATION_CONTEXT ( 3 ) GLOBAL_UNCERTAINTY_ASSIGNED_CONTEXT ( ( #129 ) ) GLOBAL_UNIT_ASSIGNED_CONTEXT ( ( #16, #15, #14 ) ) REPRESENTATION_CONTEXT ( 'NONE', 'WORKASPACE' ) );
#184 =( GEOMETRIC_REPRESENTATION_CONTEXT ( 3 ) GLOBAL_UNCERTAINTY_ASSIGNED_CONTEXT ( ( #123 ) ) GLOBAL_UNIT_ASSIGNED_CONTEXT ( ( #29, #28, #27 ) ) REPRESENTATION_CONTEXT ( 'NONE', 'WORKASPACE' ) );
#185 =( GEOMETRIC_REPRESENTATION_CONTEXT ( 3 ) GLOBAL_UNCERTAINTY_ASSIGNED_CONTEXT ( ( #121 ) ) GLOBAL_UNIT_ASSIGNED_CONTEXT ( ( #3, #288, #287 ) ) REPRESENTATION_CONTEXT ( 'NONE', 'WORKASPACE' ) );
#186 =( NAMED_UNIT ( * ) SI_UNIT ( $, .STERADIAN. ) SOLID_ANGLE_UNIT ( ) );
#187 = APPLICATION_PROTOCOL_DEFINITION ( 'draft international standard', 'automotive_design', 1998, #327 ) ;
#188 = PRODUCT_CONTEXT ( 'NONE', #326, 'mechanical' ) ;
#189 = SHAPE_DEFINITION_REPRESENTATION ( #118, #128 ) ;
#190 = DIRECTION ( 'NONE',  ( 1.000000000000000000, 0.0000000000000000000, 0.0000000000000000000 ) ) ;
#191 = DIRECTION ( 'NONE',  ( 0.0000000000000000000, 0.0000000000000000000, 1.000000000000000000 ) ) ;
#192 = CARTESIAN_POINT ( 'NONE',  ( 0.0000000000000000000, 0.0000000000000000000, 0.0000000000000000000 ) ) ;
#193 =( NAMED_UNIT ( * ) SI_UNIT ( $, .STERADIAN. ) SOLID_ANGLE_UNIT ( ) );
#194 =( NAMED_UNIT ( * ) PLANE_ANGLE_UNIT ( ) SI_UNIT ( $, .RADIAN. ) );
#195 =( CONVERSION_BASED_UNIT ( 'INCH', #165 ) LENGTH_UNIT ( ) NAMED_UNIT ( #139 ) );
#196 =( LENGTH_UNIT ( ) NAMED_UNIT ( * ) SI_UNIT ( $, .METRE. ) );
#197 = PRESENTATION_STYLE_ASSIGNMENT (( #198 ) ) ;
#198 = SURFACE_STYLE_USAGE ( .BOTH. , #199 ) ;
#199 = SURFACE_SIDE_STYLE ('',( #200 ) ) ;
#200 = SURFACE_STYLE_FILL_AREA ( #201 ) ;
#201 = FILL_AREA_STYLE ('',( #202 ) ) ;
#202 = FILL_AREA_STYLE_COLOUR ( '', #322 ) ;
#203 = APPLICATION_PROTOCOL_DEFINITION ( 'draft international standard', 'automotive_design', 1998, #326 ) ;
#204 =( NAMED_UNIT ( * ) SI_UNIT ( $, .STERADIAN. ) SOLID_ANGLE_UNIT ( ) );
#205 =( NAMED_UNIT ( * ) PLANE_ANGLE_UNIT ( ) SI_UNIT ( $, .RADIAN. ) );
#206 =( CONVERSION_BASED_UNIT ( 'INCH', #156 ) LENGTH_UNIT ( ) NAMED_UNIT ( #138 ) );
#207 =( LENGTH_UNIT ( ) NAMED_UNIT ( * ) SI_UNIT ( $, .METRE. ) );
#208 = DIRECTION ( 'NONE',  ( -0.0000000000000000000, -0.0000000000000000000, -1.000000000000000000 ) ) ;
#209 = CARTESIAN_POINT ( 'NONE',  ( -0.1405000000000000100, 0.0000000000000000000, 0.1250000000000000000 ) ) ;
#210 = LINE ( 'NONE', #209, #161 ) ;
#211 = DIRECTION ( 'NONE',  ( -1.000000000000000000, 0.0000000000000000000, 0.0000000000000000000 ) ) ;
#212 = DIRECTION ( 'NONE',  ( -0.0000000000000000000, -0.0000000000000000000, -1.000000000000000000 ) ) ;
#213 =( NAMED_UNIT ( * ) SI_UNIT ( $, .STERADIAN. ) SOLID_ANGLE_UNIT ( ) );
#214 =( NAMED_UNIT ( * ) PLANE_ANGLE_UNIT ( ) SI_UNIT ( $, .RADIAN. ) );
#215 =( CONVERSION_BASED_UNIT ( 'INCH', #160 ) LENGTH_UNIT ( ) NAMED_UNIT ( #136 ) );
#216 =( LENGTH_UNIT ( ) NAMED_UNIT ( * ) SI_UNIT ( $, .METRE. ) );
#217 = PRESENTATION_STYLE_ASSIGNMENT (( #218 ) ) ;
#218 = SURFACE_STYLE_USAGE ( .BOTH. , #219 ) ;
#219 = SURFACE_SIDE_STYLE ('',( #220 ) ) ;
#220 = SURFACE_STYLE_FILL_AREA ( #221 ) ;
#221 = FILL_AREA_STYLE ('',( #222 ) ) ;
#222 = FILL_AREA_STYLE_COLOUR ( '', #321 ) ;
#223 = CARTESIAN_POINT ( 'NONE',  ( 0.0000000000000000000, 0.0000000000000000000, 0.1250000000000000000 ) ) ;
#224 = DIRECTION ( 'NONE',  ( 1.000000000000000000, 0.0000000000000000000, 0.0000000000000000000 ) ) ;
#225 = DIRECTION ( 'NONE',  ( 0.0000000000000000000, 0.0000000000000000000, 1.000000000000000000 ) ) ;
#226 = CARTESIAN_POINT ( 'NONE',  ( 0.0000000000000000000, 0.0000000000000000000, 0.0000000000000000000 ) ) ;
#227 = DIRECTION ( 'NONE',  ( 1.000000000000000000, 0.0000000000000000000, 0.0000000000000000000 ) ) ;
#228 = DIRECTION ( 'NONE',  ( 0.0000000000000000000, 0.0000000000000000000, 1.000000000000000000 ) ) ;
#229 = DIRECTION ( 'NONE',  ( -0.0000000000000000000, -0.0000000000000000000, -1.000000000000000000 ) ) ;
#230 = CARTESIAN_POINT ( 'NONE',  ( -0.2500000000000000000, 0.0000000000000000000, 0.1250000000000000000 ) ) ;
#231 = LINE ( 'NONE', #230, #154 ) ;
#232 = CARTESIAN_POINT ( 'NONE',  ( 0.0000000000000000000, 0.0000000000000000000, 0.0000000000000000000 ) ) ;
#233 = DIRECTION ( 'NONE',  ( 1.000000000000000000, 0.0000000000000000000, 0.0000000000000000000 ) ) ;
#234 = DIRECTION ( 'NONE',  ( 0.0000000000000000000, 0.0000000000000000000, 1.000000000000000000 ) ) ;
#235 = CARTESIAN_POINT ( 'NONE',  ( 0.0000000000000000000, 0.0000000000000000000, 0.0000000000000000000 ) ) ;
#236 = DIRECTION ( 'NONE',  ( 1.000000000000000000, 0.0000000000000000000, 0.0000000000000000000 ) ) ;
#237 = DIRECTION ( 'NONE',  ( 0.0000000000000000000, 0.0000000000000000000, 1.000000000000000000 ) ) ;
#238 = CARTESIAN_POINT ( 'NONE',  ( 0.0000000000000000000, 0.0000000000000000000, 0.1250000000000000000 ) ) ;
#239 = DIRECTION ( 'NONE',  ( 1.000000000000000000, 0.0000000000000000000, 0.0000000000000000000 ) ) ;
#240 = DIRECTION ( 'NONE',  ( 0.0000000000000000000, 0.0000000000000000000, 1.000000000000000000 ) ) ;
#241 = CARTESIAN_POINT ( 'NONE',  ( 0.0000000000000000000, 0.0000000000000000000, 0.1250000000000000000 ) ) ;
#242 = DIRECTION ( 'NONE',  ( 1.000000000000000000, 0.0000000000000000000, 0.0000000000000000000 ) ) ;
#243 = DIRECTION ( 'NONE',  ( 0.0000000000000000000, 0.0000000000000000000, 1.000000000000000000 ) ) ;
#244 = DIRECTION ( 'NONE',  ( -0.0000000000000000000, -0.0000000000000000000, -1.000000000000000000 ) ) ;
#245 = CARTESIAN_POINT ( 'NONE',  ( 0.1405000000000000100, 1.720628752802031100E-017, 0.1250000000000000000 ) ) ;
#246 = LINE ( 'NONE', #245, #148 ) ;
#247 = CARTESIAN_POINT ( 'NONE',  ( 0.0000000000000000000, 0.0000000000000000000, 0.1250000000000000000 ) ) ;
#248 = DIRECTION ( 'NONE',  ( 1.000000000000000000, 0.0000000000000000000, 0.0000000000000000000 ) ) ;
#249 = DIRECTION ( 'NONE',  ( 0.0000000000000000000, 0.0000000000000000000, 1.000000000000000000 ) ) ;
#250 = DIRECTION ( 'NONE',  ( -0.0000000000000000000, -0.0000000000000000000, -1.000000000000000000 ) ) ;
#251 = CARTESIAN_POINT ( 'NONE',  ( 0.2500000000000000000, 3.061616997868383000E-017, 0.1250000000000000000 ) ) ;
#252 = LINE ( 'NONE', #251, #146 ) ;
#253 = CARTESIAN_POINT ( 'NONE',  ( 0.0000000000000000000, 0.0000000000000000000, 0.0000000000000000000 ) ) ;
#254 = DIRECTION ( 'NONE',  ( 1.000000000000000000, 0.0000000000000000000, 0.0000000000000000000 ) ) ;
#255 = DIRECTION ( 'NONE',  ( 0.0000000000000000000, 0.0000000000000000000, 1.000000000000000000 ) ) ;
#256 = CARTESIAN_POINT ( 'NONE',  ( 0.0000000000000000000, 0.0000000000000000000, 0.1250000000000000000 ) ) ;
#257 = DIRECTION ( 'NONE',  ( -1.000000000000000000, 0.0000000000000000000, 0.0000000000000000000 ) ) ;
#258 = DIRECTION ( 'NONE',  ( -0.0000000000000000000, -0.0000000000000000000, -1.000000000000000000 ) ) ;
#259 = CARTESIAN_POINT ( 'NONE',  ( 0.0000000000000000000, 0.0000000000000000000, 0.1250000000000000000 ) ) ;
#260 =( NAMED_UNIT ( * ) SI_UNIT ( $, .STERADIAN. ) SOLID_ANGLE_UNIT ( ) );
#261 =( NAMED_UNIT ( * ) PLANE_ANGLE_UNIT ( ) SI_UNIT ( $, .RADIAN. ) );
#262 =( CONVERSION_BASED_UNIT ( 'INCH', #142 ) LENGTH_UNIT ( ) NAMED_UNIT ( #135 ) );
#263 =( LENGTH_UNIT ( ) NAMED_UNIT ( * ) SI_UNIT ( $, .METRE. ) );
#264 = SURFACE_STYLE_FILL_AREA ( #284 ) ;
#265 =( CONVERSION_BASED_UNIT ( 'INCH', #140 ) LENGTH_UNIT ( ) NAMED_UNIT ( #134 ) );
#266 =( NAMED_UNIT ( * ) PLANE_ANGLE_UNIT ( ) SI_UNIT ( $, .RADIAN. ) );
#267 =( LENGTH_UNIT ( ) NAMED_UNIT ( * ) SI_UNIT ( $, .METRE. ) );
#268 = PRESENTATION_STYLE_ASSIGNMENT (( #269 ) ) ;
#269 = SURFACE_STYLE_USAGE ( .BOTH. , #270 ) ;
#270 = SURFACE_SIDE_STYLE ('',( #271 ) ) ;
#271 = SURFACE_STYLE_FILL_AREA ( #272 ) ;
#272 = FILL_AREA_STYLE ('',( #273 ) ) ;
#273 = FILL_AREA_STYLE_COLOUR ( '', #298 ) ;
#274 = DIRECTION ( 'NONE',  ( 1.000000000000000000, 0.0000000000000000000, -0.0000000000000000000 ) ) ;
#275 = SURFACE_STYLE_USAGE ( .BOTH. , #277 ) ;
#276 = DIRECTION ( 'NONE',  ( 0.0000000000000000000, 0.0000000000000000000, 1.000000000000000000 ) ) ;
#277 = SURFACE_SIDE_STYLE ('',( #264 ) ) ;
#278 = FILL_AREA_STYLE_COLOUR ( '', #296 ) ;
#279 = DIRECTION ( 'NONE',  ( 1.000000000000000000, 0.0000000000000000000, -0.0000000000000000000 ) ) ;
#280 = DIRECTION ( 'NONE',  ( 0.0000000000000000000, 0.0000000000000000000, 1.000000000000000000 ) ) ;
#281 = CARTESIAN_POINT ( 'NONE',  ( 0.0000000000000000000, 0.0000000000000000000, 0.0000000000000000000 ) ) ;
#282 = PLANE ( 'NONE',  #115 ) ;
#283 = PRESENTATION_STYLE_ASSIGNMENT (( #275 ) ) ;
#284 = FILL_AREA_STYLE ('',( #278 ) ) ;
#285 = CARTESIAN_POINT ( 'NONE',  ( 0.0000000000000000000, 0.0000000000000000000, 0.1250000000000000000 ) ) ;
#286 = PLANE ( 'NONE',  #329 ) ;
#287 =( NAMED_UNIT ( * ) SI_UNIT ( $, .STERADIAN. ) SOLID_ANGLE_UNIT ( ) );
#288 =( NAMED_UNIT ( * ) PLANE_ANGLE_UNIT ( ) SI_UNIT ( $, .RADIAN. ) );
#289 = CIRCLE ( 'NONE', #152, 0.1405000000000000100 ) ;
#290 = CIRCLE ( 'NONE', #149, 0.1405000000000000100 ) ;
#291 = CIRCLE ( 'NONE', #150, 0.2500000000000000000 ) ;
#292 = COLOUR_RGB ( '',0.2941176470588235400, 0.2941176470588235400, 0.2941176470588235400 ) ;
#293 = CIRCLE ( 'NONE', #143, 0.2500000000000000000 ) ;
#294 = CIRCLE ( 'NONE', #147, 0.1405000000000000100 ) ;
#295 = CIRCLE ( 'NONE', #328, 0.1405000000000000100 ) ;
#296 = COLOUR_RGB ( '',0.2941176470588235400, 0.2941176470588235400, 0.2941176470588235400 ) ;
#297 = COLOUR_RGB ( '',0.5686274509803921400, 0.5490196078431373000, 0.5098039215686274200 ) ;
#298 = COLOUR_RGB ( '',0.2941176470588235400, 0.2941176470588235400, 0.2941176470588235400 ) ;
#299 = COLOUR_RGB ( '',0.2941176470588235400, 0.2941176470588235400, 0.2941176470588235400 ) ;
#300 = CIRCLE ( 'NONE', #145, 0.2500000000000000000 ) ;
#301 = COLOUR_RGB ( '',0.2941176470588235400, 0.2941176470588235400, 0.2941176470588235400 ) ;
#302 = ADVANCED_FACE ( 'NONE', ( #175 ), #173, .F. ) ;
#303 = ADVANCED_FACE ( 'NONE', ( #170 ), #102, .T. ) ;
#304 = ADVANCED_FACE ( 'NONE', ( #109, #112 ), #282, .F. ) ;
#305 = ADVANCED_FACE ( 'NONE', ( #108, #114 ), #286, .T. ) ;
#306 = ADVANCED_FACE ( 'NONE', ( #168 ), #1, .T. ) ;
#307 = EDGE_CURVE ( 'NONE', #65, #64, #295, .T. ) ;
#308 = EDGE_CURVE ( 'NONE', #60, #62, #252, .T. ) ;
#309 = EDGE_CURVE ( 'NONE', #63, #62, #300, .T. ) ;
#310 = EDGE_CURVE ( 'NONE', #65, #58, #246, .T. ) ;
#311 = EDGE_CURVE ( 'NONE', #64, #65, #294, .T. ) ;
#312 = EDGE_CURVE ( 'NONE', #61, #60, #293, .T. ) ;
#313 = EDGE_CURVE ( 'NONE', #60, #61, #291, .T. ) ;
#314 = EDGE_CURVE ( 'NONE', #59, #58, #290, .T. ) ;
#315 = EDGE_CURVE ( 'NONE', #61, #63, #231, .T. ) ;
#316 = EDGE_CURVE ( 'NONE', #58, #59, #289, .T. ) ;
#317 = EDGE_CURVE ( 'NONE', #62, #63, #320, .T. ) ;
#318 = ADVANCED_FACE ( 'NONE', ( #153 ), #157, .F. ) ;
#319 = EDGE_CURVE ( 'NONE', #64, #59, #210, .T. ) ;
#320 = CIRCLE ( 'NONE', #151, 0.2500000000000000000 ) ;
#321 = COLOUR_RGB ( '',0.2941176470588235400, 0.2941176470588235400, 0.2941176470588235400 ) ;
#322 = COLOUR_RGB ( '',0.5686274509803921400, 0.5490196078431373000, 0.5098039215686274200 ) ;
#323 = PRODUCT_DEFINITION ( 'UNKNOWN', '', #167, #117 ) ;
#324 = PRODUCT_RELATED_PRODUCT_CATEGORY ( 'part', '', ( #137 ) ) ;
#325 = STYLED_ITEM ( 'NONE', ( #283 ), #306 ) ;
#326 = APPLICATION_CONTEXT ( 'automotive_design' ) ;
#327 = APPLICATION_CONTEXT ( 'automotive_design' ) ;
#328 = AXIS2_PLACEMENT_3D ( 'NONE', #256, #255, #254 ) ;
#329 = AXIS2_PLACEMENT_3D ( 'NONE', #285, #280, #279 ) ;
#330 = MECHANICAL_DESIGN_GEOMETRIC_PRESENTATION_REPRESENTATION (  '', ( #111 ), #181 ) ;
#331 = PRESENTATION_LAYER_ASSIGNMENT (  '', '', ( #111 ) ) ;
ENDSEC;
END-ISO-10303-21;
