ISO-10303-21;
HEADER;
FILE_DESCRIPTION (( 'STEP AP214' ),
    '1' );
FILE_NAME ('H125D.step',
    '2012-04-20T20:58:43',
    ( '' ),
    ( '' ),
    'SwSTEP 2.0',
    'SolidWorks 2012',
    '' );
FILE_SCHEMA (( 'AUTOMOTIVE_DESIGN' ));
ENDSEC;

DATA;
#1 = FACE_BOUND ( 'NONE', #43, .T. ) ;
#2 = AXIS2_PLACEMENT_3D ( 'NONE', #52, #51, #47 ) ;
#3 = CYLINDRICAL_SURFACE ( 'NONE', #2, 0.2500000000000000000 ) ;
#4 = FACE_BOUND ( 'NONE', #41, .T. ) ;
#5 = EDGE_LOOP ( 'NONE', ( #103, #108, #107, #106 ) ) ;
#6 = CARTESIAN_POINT ( 'NONE',  ( -0.2500000000000000000, 0.0000000000000000000, 0.1250000000000000000 ) ) ;
#7 =( LENGTH_UNIT ( ) NAMED_UNIT ( * ) SI_UNIT ( $, .METRE. ) );
#8 = DIRECTION ( 'NONE',  ( -0.0000000000000000000, -0.0000000000000000000, -1.000000000000000000 ) ) ;
#9 = LINE ( 'NONE', #6, #141 ) ;
#10 = DIRECTION ( 'NONE',  ( -0.0000000000000000000, -0.0000000000000000000, -1.000000000000000000 ) ) ;
#11 = CARTESIAN_POINT ( 'NONE',  ( 0.2500000000000000000, 3.061616997868383000E-017, 0.1250000000000000000 ) ) ;
#12 = LINE ( 'NONE', #11, #140 ) ;
#13 = DIRECTION ( 'NONE',  ( -0.0000000000000000000, -0.0000000000000000000, -1.000000000000000000 ) ) ;
#14 = CARTESIAN_POINT ( 'NONE',  ( -0.1405000000000000100, 0.0000000000000000000, 0.1250000000000000000 ) ) ;
#15 = LINE ( 'NONE', #14, #139 ) ;
#16 = DIRECTION ( 'NONE',  ( -0.0000000000000000000, -0.0000000000000000000, -1.000000000000000000 ) ) ;
#17 = CARTESIAN_POINT ( 'NONE',  ( 0.1405000000000000100, 1.720628752802031100E-017, 0.1250000000000000000 ) ) ;
#18 = EDGE_LOOP ( 'NONE', ( #111, #110, #112, #109 ) ) ;
#19 = EDGE_LOOP ( 'NONE', ( #119, #69, #114, #115 ) ) ;
#20 = EDGE_LOOP ( 'NONE', ( #66, #117, #118, #116 ) ) ;
#21 = DIRECTION ( 'NONE',  ( 1.000000000000000000, 0.0000000000000000000, 0.0000000000000000000 ) ) ;
#22 = LINE ( 'NONE', #17, #138 ) ;
#23 = DIRECTION ( 'NONE',  ( 1.000000000000000000, 0.0000000000000000000, 0.0000000000000000000 ) ) ;
#24 = CARTESIAN_POINT ( 'NONE',  ( 0.0000000000000000000, 0.0000000000000000000, 0.1250000000000000000 ) ) ;
#25 = DIRECTION ( 'NONE',  ( 0.0000000000000000000, 0.0000000000000000000, 1.000000000000000000 ) ) ;
#26 = DIRECTION ( 'NONE',  ( 1.000000000000000000, 0.0000000000000000000, 0.0000000000000000000 ) ) ;
#27 = DIRECTION ( 'NONE',  ( 0.0000000000000000000, 0.0000000000000000000, 1.000000000000000000 ) ) ;
#28 = CARTESIAN_POINT ( 'NONE',  ( 0.0000000000000000000, 0.0000000000000000000, 0.0000000000000000000 ) ) ;
#29 = DIRECTION ( 'NONE',  ( 1.000000000000000000, 0.0000000000000000000, 0.0000000000000000000 ) ) ;
#30 = CARTESIAN_POINT ( 'NONE',  ( 0.0000000000000000000, 0.0000000000000000000, 0.0000000000000000000 ) ) ;
#31 = DIRECTION ( 'NONE',  ( 0.0000000000000000000, 0.0000000000000000000, 1.000000000000000000 ) ) ;
#32 = DIRECTION ( 'NONE',  ( 0.0000000000000000000, 0.0000000000000000000, 1.000000000000000000 ) ) ;
#33 = CARTESIAN_POINT ( 'NONE',  ( 0.0000000000000000000, 0.0000000000000000000, 0.0000000000000000000 ) ) ;
#34 = DIRECTION ( 'NONE',  ( 1.000000000000000000, 0.0000000000000000000, 0.0000000000000000000 ) ) ;
#35 = DIRECTION ( 'NONE',  ( 0.0000000000000000000, 0.0000000000000000000, 1.000000000000000000 ) ) ;
#36 = CARTESIAN_POINT ( 'NONE',  ( 0.0000000000000000000, 0.0000000000000000000, 0.0000000000000000000 ) ) ;
#37 = DIRECTION ( 'NONE',  ( 1.000000000000000000, 0.0000000000000000000, 0.0000000000000000000 ) ) ;
#38 = DIRECTION ( 'NONE',  ( 0.0000000000000000000, 0.0000000000000000000, 1.000000000000000000 ) ) ;
#39 = CARTESIAN_POINT ( 'NONE',  ( 0.0000000000000000000, 0.0000000000000000000, 0.1250000000000000000 ) ) ;
#40 = DIRECTION ( 'NONE',  ( 1.000000000000000000, 0.0000000000000000000, 0.0000000000000000000 ) ) ;
#41 = EDGE_LOOP ( 'NONE', ( #113, #101 ) ) ;
#42 = EDGE_LOOP ( 'NONE', ( #100, #104 ) ) ;
#43 = EDGE_LOOP ( 'NONE', ( #102, #105 ) ) ;
#44 = DIRECTION ( 'NONE',  ( -1.000000000000000000, 0.0000000000000000000, 0.0000000000000000000 ) ) ;
#45 = CARTESIAN_POINT ( 'NONE',  ( 0.0000000000000000000, 0.0000000000000000000, 0.1250000000000000000 ) ) ;
#46 = DIRECTION ( 'NONE',  ( 0.0000000000000000000, 0.0000000000000000000, 1.000000000000000000 ) ) ;
#47 = DIRECTION ( 'NONE',  ( -1.000000000000000000, 0.0000000000000000000, 0.0000000000000000000 ) ) ;
#48 = CARTESIAN_POINT ( 'NONE',  ( 0.0000000000000000000, 0.0000000000000000000, 0.1250000000000000000 ) ) ;
#49 = DIRECTION ( 'NONE',  ( -0.0000000000000000000, -0.0000000000000000000, -1.000000000000000000 ) ) ;
#50 = DIRECTION ( 'NONE',  ( 1.000000000000000000, 0.0000000000000000000, -0.0000000000000000000 ) ) ;
#51 = DIRECTION ( 'NONE',  ( -0.0000000000000000000, -0.0000000000000000000, -1.000000000000000000 ) ) ;
#52 = CARTESIAN_POINT ( 'NONE',  ( 0.0000000000000000000, 0.0000000000000000000, 0.1250000000000000000 ) ) ;
#53 = PLANE ( 'NONE',  #155 ) ;
#54 = CARTESIAN_POINT ( 'NONE',  ( 0.0000000000000000000, 0.0000000000000000000, 0.0000000000000000000 ) ) ;
#55 = DIRECTION ( 'NONE',  ( 0.0000000000000000000, 0.0000000000000000000, 1.000000000000000000 ) ) ;
#56 = DIRECTION ( 'NONE',  ( 1.000000000000000000, 0.0000000000000000000, -0.0000000000000000000 ) ) ;
#57 = DIRECTION ( 'NONE',  ( 0.0000000000000000000, 0.0000000000000000000, 1.000000000000000000 ) ) ;
#58 = CARTESIAN_POINT ( 'NONE',  ( 0.0000000000000000000, 0.0000000000000000000, 0.1250000000000000000 ) ) ;
#59 = PLANE ( 'NONE',  #122 ) ;
#60 = DIRECTION ( 'NONE',  ( -1.000000000000000000, 0.0000000000000000000, 0.0000000000000000000 ) ) ;
#61 = DIRECTION ( 'NONE',  ( -0.0000000000000000000, -0.0000000000000000000, -1.000000000000000000 ) ) ;
#62 = CARTESIAN_POINT ( 'NONE',  ( 0.0000000000000000000, 0.0000000000000000000, 0.1250000000000000000 ) ) ;
#63 = DIRECTION ( 'NONE',  ( -1.000000000000000000, 0.0000000000000000000, 0.0000000000000000000 ) ) ;
#64 = DIRECTION ( 'NONE',  ( -0.0000000000000000000, -0.0000000000000000000, -1.000000000000000000 ) ) ;
#65 = EDGE_LOOP ( 'NONE', ( #99, #98 ) ) ;
#66 = ORIENTED_EDGE ( 'NONE', *, *, #191, .F. ) ;
#67 = DIRECTION ( 'NONE',  ( 0.0000000000000000000, 0.0000000000000000000, 1.000000000000000000 ) ) ;
#68 = CARTESIAN_POINT ( 'NONE',  ( 0.0000000000000000000, 0.0000000000000000000, 0.1250000000000000000 ) ) ;
#69 = ORIENTED_EDGE ( 'NONE', *, *, #217, .T. ) ;
#70 = DIRECTION ( 'NONE',  ( 1.000000000000000000, 0.0000000000000000000, 0.0000000000000000000 ) ) ;
#71 =( NAMED_UNIT ( * ) SI_UNIT ( $, .STERADIAN. ) SOLID_ANGLE_UNIT ( ) );
#72 = CARTESIAN_POINT ( 'NONE',  ( 0.0000000000000000000, 0.0000000000000000000, 0.1250000000000000000 ) ) ;
#73 =( NAMED_UNIT ( * ) PLANE_ANGLE_UNIT ( ) SI_UNIT ( $, .RADIAN. ) );
#74 =( CONVERSION_BASED_UNIT ( 'INCH', #169 ) LENGTH_UNIT ( ) NAMED_UNIT ( #124 ) );
#75 =( LENGTH_UNIT ( ) NAMED_UNIT ( * ) SI_UNIT ( $, .METRE. ) );
#76 = PRESENTATION_STYLE_ASSIGNMENT (( #77 ) ) ;
#77 = SURFACE_STYLE_USAGE ( .BOTH. , #78 ) ;
#78 = SURFACE_SIDE_STYLE ('',( #79 ) ) ;
#79 = SURFACE_STYLE_FILL_AREA ( #80 ) ;
#80 = FILL_AREA_STYLE ('',( #81 ) ) ;
#81 = FILL_AREA_STYLE_COLOUR ( '', #199 ) ;
#82 = CARTESIAN_POINT ( 'NONE',  ( 0.2500000000000000000, 3.061616997868383000E-017, 0.1250000000000000000 ) ) ;
#83 = CARTESIAN_POINT ( 'NONE',  ( 0.1405000000000000100, 1.720628752802031100E-017, 0.0000000000000000000 ) ) ;
#84 = CARTESIAN_POINT ( 'NONE',  ( -0.1405000000000000100, 0.0000000000000000000, 0.0000000000000000000 ) ) ;
#85 = CARTESIAN_POINT ( 'NONE',  ( -0.1405000000000000100, 0.0000000000000000000, 0.1250000000000000000 ) ) ;
#86 = CARTESIAN_POINT ( 'NONE',  ( 0.1405000000000000100, 1.720628752802031100E-017, 0.1250000000000000000 ) ) ;
#87 = CARTESIAN_POINT ( 'NONE',  ( 0.2500000000000000000, 3.061616997868383000E-017, 0.0000000000000000000 ) ) ;
#88 = CARTESIAN_POINT ( 'NONE',  ( -0.2500000000000000000, 0.0000000000000000000, 0.1250000000000000000 ) ) ;
#89 = CARTESIAN_POINT ( 'NONE',  ( -0.2500000000000000000, 0.0000000000000000000, 0.0000000000000000000 ) ) ;
#90 = VERTEX_POINT ( 'NONE', #89 ) ;
#91 = VERTEX_POINT ( 'NONE', #88 ) ;
#92 = VERTEX_POINT ( 'NONE', #87 ) ;
#93 = VERTEX_POINT ( 'NONE', #86 ) ;
#94 = VERTEX_POINT ( 'NONE', #85 ) ;
#95 = VERTEX_POINT ( 'NONE', #84 ) ;
#96 = VERTEX_POINT ( 'NONE', #83 ) ;
#97 = VERTEX_POINT ( 'NONE', #82 ) ;
#98 = ORIENTED_EDGE ( 'NONE', *, *, #191, .T. ) ;
#99 = ORIENTED_EDGE ( 'NONE', *, *, #211, .T. ) ;
#100 = ORIENTED_EDGE ( 'NONE', *, *, #212, .F. ) ;
#101 = ORIENTED_EDGE ( 'NONE', *, *, #210, .F. ) ;
#102 = ORIENTED_EDGE ( 'NONE', *, *, #215, .T. ) ;
#103 = ORIENTED_EDGE ( 'NONE', *, *, #219, .F. ) ;
#104 = ORIENTED_EDGE ( 'NONE', *, *, #214, .F. ) ;
#105 = ORIENTED_EDGE ( 'NONE', *, *, #213, .T. ) ;
#106 = ORIENTED_EDGE ( 'NONE', *, *, #212, .T. ) ;
#107 = ORIENTED_EDGE ( 'NONE', *, *, #220, .T. ) ;
#108 = ORIENTED_EDGE ( 'NONE', *, *, #211, .F. ) ;
#109 = ORIENTED_EDGE ( 'NONE', *, *, #213, .F. ) ;
#110 = ORIENTED_EDGE ( 'NONE', *, *, #210, .T. ) ;
#111 = ORIENTED_EDGE ( 'NONE', *, *, #217, .F. ) ;
#112 = ORIENTED_EDGE ( 'NONE', *, *, #218, .T. ) ;
#113 = ORIENTED_EDGE ( 'NONE', *, *, #216, .F. ) ;
#114 = ORIENTED_EDGE ( 'NONE', *, *, #215, .F. ) ;
#115 = ORIENTED_EDGE ( 'NONE', *, *, #218, .F. ) ;
#116 = ORIENTED_EDGE ( 'NONE', *, *, #220, .F. ) ;
#117 = ORIENTED_EDGE ( 'NONE', *, *, #219, .T. ) ;
#118 = ORIENTED_EDGE ( 'NONE', *, *, #214, .T. ) ;
#119 = ORIENTED_EDGE ( 'NONE', *, *, #216, .T. ) ;
#120 = FACE_OUTER_BOUND ( 'NONE', #42, .T. ) ;
#121 = CYLINDRICAL_SURFACE ( 'NONE', #130, 0.1405000000000000100 ) ;
#122 = AXIS2_PLACEMENT_3D ( 'NONE', #58, #57, #56 ) ;
#123 = DIMENSIONAL_EXPONENTS ( 1.000000000000000000, 0.0000000000000000000, 0.0000000000000000000, 0.0000000000000000000, 0.0000000000000000000, 0.0000000000000000000, 0.0000000000000000000 ) ;
#124 = DIMENSIONAL_EXPONENTS ( 1.000000000000000000, 0.0000000000000000000, 0.0000000000000000000, 0.0000000000000000000, 0.0000000000000000000, 0.0000000000000000000, 0.0000000000000000000 ) ;
#125 = DIMENSIONAL_EXPONENTS ( 1.000000000000000000, 0.0000000000000000000, 0.0000000000000000000, 0.0000000000000000000, 0.0000000000000000000, 0.0000000000000000000, 0.0000000000000000000 ) ;
#126 = PRODUCT ( 'H125D', 'H125D', '', ( #172 ) ) ;
#127 = PRODUCT_DEFINITION_SHAPE ( 'NONE', 'NONE',  #194 ) ;
#128 = PRODUCT_DEFINITION_CONTEXT ( 'detailed design', #223, 'design' ) ;
#129 = MANIFOLD_SOLID_BREP ( 'Boss-Extrude1', #163 ) ;
#130 = AXIS2_PLACEMENT_3D ( 'NONE', #48, #49, #44 ) ;
#131 = AXIS2_PLACEMENT_3D ( 'NONE', #36, #35, #34 ) ;
#132 = AXIS2_PLACEMENT_3D ( 'NONE', #39, #38, #37 ) ;
#133 = AXIS2_PLACEMENT_3D ( 'NONE', #24, #25, #21 ) ;
#134 = AXIS2_PLACEMENT_3D ( 'NONE', #33, #32, #29 ) ;
#135 = AXIS2_PLACEMENT_3D ( 'NONE', #30, #31, #26 ) ;
#136 = AXIS2_PLACEMENT_3D ( 'NONE', #28, #27, #23 ) ;
#137 = LENGTH_MEASURE_WITH_UNIT ( LENGTH_MEASURE( 0.02539999999999999900 ), #7 );
#138 = VECTOR ( 'NONE', #16, 39.37007874015748100 ) ;
#139 = VECTOR ( 'NONE', #13, 39.37007874015748100 ) ;
#140 = VECTOR ( 'NONE', #10, 39.37007874015748100 ) ;
#141 = VECTOR ( 'NONE', #8, 39.37007874015748100 ) ;
#142 = STYLED_ITEM ( 'NONE', ( #181 ), #151 ) ;
#143 = PRESENTATION_LAYER_ASSIGNMENT (  '', '', ( #142 ) ) ;
#144 = MECHANICAL_DESIGN_GEOMETRIC_PRESENTATION_REPRESENTATION (  '', ( #142 ), #156 ) ;
#145 = LENGTH_MEASURE_WITH_UNIT ( LENGTH_MEASURE( 0.02539999999999999900 ), #180 );
#146 = AXIS2_PLACEMENT_3D ( 'NONE', #175, #176, #173 ) ;
#147 = PRODUCT_DEFINITION_FORMATION_WITH_SPECIFIED_SOURCE ( 'ANY', '', #126, .NOT_KNOWN. ) ;
#148 = UNCERTAINTY_MEASURE_WITH_UNIT (LENGTH_MEASURE( 1.000000000000000100E-005 ), #74, 'distance_accuracy_value', 'NONE');
#149 = UNCERTAINTY_MEASURE_WITH_UNIT (LENGTH_MEASURE( 1.000000000000000100E-005 ), #179, 'distance_accuracy_value', 'NONE');
#150 = UNCERTAINTY_MEASURE_WITH_UNIT (LENGTH_MEASURE( 1.000000000000000100E-005 ), #190, 'distance_accuracy_value', 'NONE');
#151 = ADVANCED_BREP_SHAPE_REPRESENTATION ( 'H125D', ( #129, #146 ), #157 ) ;
#152 = AXIS2_PLACEMENT_3D ( 'NONE', #62, #61, #60 ) ;
#153 = CYLINDRICAL_SURFACE ( 'NONE', #152, 0.2500000000000000000 ) ;
#154 = AXIS2_PLACEMENT_3D ( 'NONE', #45, #46, #40 ) ;
#155 = AXIS2_PLACEMENT_3D ( 'NONE', #54, #55, #50 ) ;
#156 =( GEOMETRIC_REPRESENTATION_CONTEXT ( 3 ) GLOBAL_UNCERTAINTY_ASSIGNED_CONTEXT ( ( #149 ) ) GLOBAL_UNIT_ASSIGNED_CONTEXT ( ( #179, #178, #177 ) ) REPRESENTATION_CONTEXT ( 'NONE', 'WORKASPACE' ) );
#157 =( GEOMETRIC_REPRESENTATION_CONTEXT ( 3 ) GLOBAL_UNCERTAINTY_ASSIGNED_CONTEXT ( ( #150 ) ) GLOBAL_UNIT_ASSIGNED_CONTEXT ( ( #190, #189, #188 ) ) REPRESENTATION_CONTEXT ( 'NONE', 'WORKASPACE' ) );
#158 =( GEOMETRIC_REPRESENTATION_CONTEXT ( 3 ) GLOBAL_UNCERTAINTY_ASSIGNED_CONTEXT ( ( #148 ) ) GLOBAL_UNIT_ASSIGNED_CONTEXT ( ( #74, #73, #71 ) ) REPRESENTATION_CONTEXT ( 'NONE', 'WORKASPACE' ) );
#159 = AXIS2_PLACEMENT_3D ( 'NONE', #68, #64, #63 ) ;
#160 = MECHANICAL_DESIGN_GEOMETRIC_PRESENTATION_REPRESENTATION (  '', ( #164 ), #158 ) ;
#161 = FACE_OUTER_BOUND ( 'NONE', #20, .T. ) ;
#162 = PRESENTATION_LAYER_ASSIGNMENT (  '', '', ( #164 ) ) ;
#163 = CLOSED_SHELL ( 'NONE', ( #204, #205, #206, #207, #208, #209 ) ) ;
#164 = STYLED_ITEM ( 'NONE', ( #76 ), #129 ) ;
#165 = AXIS2_PLACEMENT_3D ( 'NONE', #72, #67, #70 ) ;
#166 = FACE_OUTER_BOUND ( 'NONE', #19, .T. ) ;
#167 = CYLINDRICAL_SURFACE ( 'NONE', #159, 0.1405000000000000100 ) ;
#168 = FACE_OUTER_BOUND ( 'NONE', #65, .T. ) ;
#169 = LENGTH_MEASURE_WITH_UNIT ( LENGTH_MEASURE( 0.02539999999999999900 ), #75 );
#170 = FACE_OUTER_BOUND ( 'NONE', #18, .T. ) ;
#171 = APPLICATION_PROTOCOL_DEFINITION ( 'draft international standard', 'automotive_design', 1998, #223 ) ;
#172 = PRODUCT_CONTEXT ( 'NONE', #222, 'mechanical' ) ;
#173 = DIRECTION ( 'NONE',  ( 1.000000000000000000, 0.0000000000000000000, 0.0000000000000000000 ) ) ;
#174 = SHAPE_DEFINITION_REPRESENTATION ( #127, #151 ) ;
#175 = CARTESIAN_POINT ( 'NONE',  ( 0.0000000000000000000, 0.0000000000000000000, 0.0000000000000000000 ) ) ;
#176 = DIRECTION ( 'NONE',  ( 0.0000000000000000000, 0.0000000000000000000, 1.000000000000000000 ) ) ;
#177 =( NAMED_UNIT ( * ) SI_UNIT ( $, .STERADIAN. ) SOLID_ANGLE_UNIT ( ) );
#178 =( NAMED_UNIT ( * ) PLANE_ANGLE_UNIT ( ) SI_UNIT ( $, .RADIAN. ) );
#179 =( CONVERSION_BASED_UNIT ( 'INCH', #145 ) LENGTH_UNIT ( ) NAMED_UNIT ( #123 ) );
#180 =( LENGTH_UNIT ( ) NAMED_UNIT ( * ) SI_UNIT ( $, .METRE. ) );
#181 = PRESENTATION_STYLE_ASSIGNMENT (( #182 ) ) ;
#182 = SURFACE_STYLE_USAGE ( .BOTH. , #183 ) ;
#183 = SURFACE_SIDE_STYLE ('',( #184 ) ) ;
#184 = SURFACE_STYLE_FILL_AREA ( #185 ) ;
#185 = FILL_AREA_STYLE ('',( #186 ) ) ;
#186 = FILL_AREA_STYLE_COLOUR ( '', #195 ) ;
#187 = APPLICATION_PROTOCOL_DEFINITION ( 'draft international standard', 'automotive_design', 1998, #222 ) ;
#188 =( NAMED_UNIT ( * ) SI_UNIT ( $, .STERADIAN. ) SOLID_ANGLE_UNIT ( ) );
#189 =( NAMED_UNIT ( * ) PLANE_ANGLE_UNIT ( ) SI_UNIT ( $, .RADIAN. ) );
#190 =( CONVERSION_BASED_UNIT ( 'INCH', #137 ) LENGTH_UNIT ( ) NAMED_UNIT ( #125 ) );
#191 = EDGE_CURVE ( 'NONE', #97, #91, #203, .T. ) ;
#192 = CIRCLE ( 'NONE', #154, 0.1405000000000000100 ) ;
#193 = PRODUCT_RELATED_PRODUCT_CATEGORY ( 'part', '', ( #126 ) ) ;
#194 = PRODUCT_DEFINITION ( 'UNKNOWN', '', #147, #128 ) ;
#195 = COLOUR_RGB ( '',0.5686274509803921400, 0.5686274509803921400, 0.5882352941176470800 ) ;
#196 = CIRCLE ( 'NONE', #133, 0.1405000000000000100 ) ;
#197 = CIRCLE ( 'NONE', #136, 0.1405000000000000100 ) ;
#198 = CIRCLE ( 'NONE', #135, 0.2500000000000000000 ) ;
#199 = COLOUR_RGB ( '',0.5686274509803921400, 0.5686274509803921400, 0.5882352941176470800 ) ;
#200 = CIRCLE ( 'NONE', #132, 0.2500000000000000000 ) ;
#201 = CIRCLE ( 'NONE', #131, 0.2500000000000000000 ) ;
#202 = CIRCLE ( 'NONE', #134, 0.1405000000000000100 ) ;
#203 = CIRCLE ( 'NONE', #165, 0.2500000000000000000 ) ;
#204 = ADVANCED_FACE ( 'NONE', ( #166 ), #167, .F. ) ;
#205 = ADVANCED_FACE ( 'NONE', ( #161 ), #153, .T. ) ;
#206 = ADVANCED_FACE ( 'NONE', ( #168, #4 ), #59, .T. ) ;
#207 = ADVANCED_FACE ( 'NONE', ( #120, #1 ), #53, .F. ) ;
#208 = ADVANCED_FACE ( 'NONE', ( #221 ), #3, .T. ) ;
#209 = ADVANCED_FACE ( 'NONE', ( #170 ), #121, .F. ) ;
#210 = EDGE_CURVE ( 'NONE', #93, #94, #192, .T. ) ;
#211 = EDGE_CURVE ( 'NONE', #91, #97, #200, .T. ) ;
#212 = EDGE_CURVE ( 'NONE', #90, #92, #201, .T. ) ;
#213 = EDGE_CURVE ( 'NONE', #96, #95, #202, .T. ) ;
#214 = EDGE_CURVE ( 'NONE', #92, #90, #198, .T. ) ;
#215 = EDGE_CURVE ( 'NONE', #95, #96, #197, .T. ) ;
#216 = EDGE_CURVE ( 'NONE', #94, #93, #196, .T. ) ;
#217 = EDGE_CURVE ( 'NONE', #93, #96, #22, .T. ) ;
#218 = EDGE_CURVE ( 'NONE', #94, #95, #15, .T. ) ;
#219 = EDGE_CURVE ( 'NONE', #97, #92, #12, .T. ) ;
#220 = EDGE_CURVE ( 'NONE', #91, #90, #9, .T. ) ;
#221 = FACE_OUTER_BOUND ( 'NONE', #5, .T. ) ;
#222 = APPLICATION_CONTEXT ( 'automotive_design' ) ;
#223 = APPLICATION_CONTEXT ( 'automotive_design' ) ;
ENDSEC;
END-ISO-10303-21;
