ISO-10303-21;
HEADER;
FILE_DESCRIPTION (( 'STEP AP214' ),
    '1' );
FILE_NAME ('H125DN45.step',
    '2012-04-20T20:58:46',
    ( '' ),
    ( '' ),
    'SwSTEP 2.0',
    'SolidWorks 2012',
    '' );
FILE_SCHEMA (( 'AUTOMOTIVE_DESIGN' ));
ENDSEC;

DATA;
#1 = AXIS2_PLACEMENT_3D ( 'NONE', #50, #49, #48 ) ;
#2 = EDGE_LOOP ( 'NONE', ( #101, #100 ) ) ;
#3 = EDGE_LOOP ( 'NONE', ( #103, #112, #113, #110 ) ) ;
#4 =( LENGTH_UNIT ( ) NAMED_UNIT ( * ) SI_UNIT ( $, .METRE. ) );
#5 = DIRECTION ( 'NONE',  ( 1.000000000000000000, 0.0000000000000000000, 0.0000000000000000000 ) ) ;
#6 = DIRECTION ( 'NONE',  ( 0.0000000000000000000, 0.0000000000000000000, 1.000000000000000000 ) ) ;
#7 = DIRECTION ( 'NONE',  ( -0.0000000000000000000, -0.0000000000000000000, -1.000000000000000000 ) ) ;
#8 = CARTESIAN_POINT ( 'NONE',  ( 0.1405000000000000100, 1.720628752802031100E-017, 0.1250000000000000000 ) ) ;
#9 = LINE ( 'NONE', #8, #145 ) ;
#10 = CARTESIAN_POINT ( 'NONE',  ( 0.0000000000000000000, 0.0000000000000000000, 0.0000000000000000000 ) ) ;
#11 = DIRECTION ( 'NONE',  ( 1.000000000000000000, 0.0000000000000000000, 0.0000000000000000000 ) ) ;
#12 = DIRECTION ( 'NONE',  ( 0.0000000000000000000, 0.0000000000000000000, 1.000000000000000000 ) ) ;
#13 = CARTESIAN_POINT ( 'NONE',  ( 0.0000000000000000000, 0.0000000000000000000, 0.1250000000000000000 ) ) ;
#14 = DIRECTION ( 'NONE',  ( 1.000000000000000000, 0.0000000000000000000, 0.0000000000000000000 ) ) ;
#15 = DIRECTION ( 'NONE',  ( 0.0000000000000000000, 0.0000000000000000000, 1.000000000000000000 ) ) ;
#16 = DIRECTION ( 'NONE',  ( -0.0000000000000000000, -0.0000000000000000000, -1.000000000000000000 ) ) ;
#17 = CARTESIAN_POINT ( 'NONE',  ( -0.1405000000000000100, 0.0000000000000000000, 0.1250000000000000000 ) ) ;
#18 = LINE ( 'NONE', #17, #143 ) ;
#19 = DIRECTION ( 'NONE',  ( -0.0000000000000000000, -0.0000000000000000000, -1.000000000000000000 ) ) ;
#20 = CARTESIAN_POINT ( 'NONE',  ( 0.2500000000000000000, 3.061616997868383000E-017, 0.1250000000000000000 ) ) ;
#21 = LINE ( 'NONE', #20, #141 ) ;
#22 = CARTESIAN_POINT ( 'NONE',  ( 0.0000000000000000000, 0.0000000000000000000, 0.0000000000000000000 ) ) ;
#23 = DIRECTION ( 'NONE',  ( 1.000000000000000000, 0.0000000000000000000, 0.0000000000000000000 ) ) ;
#24 = DIRECTION ( 'NONE',  ( 0.0000000000000000000, 0.0000000000000000000, 1.000000000000000000 ) ) ;
#25 = CARTESIAN_POINT ( 'NONE',  ( 0.0000000000000000000, 0.0000000000000000000, 0.1250000000000000000 ) ) ;
#26 = DIRECTION ( 'NONE',  ( 1.000000000000000000, 0.0000000000000000000, 0.0000000000000000000 ) ) ;
#27 = DIRECTION ( 'NONE',  ( 0.0000000000000000000, 0.0000000000000000000, 1.000000000000000000 ) ) ;
#28 = CARTESIAN_POINT ( 'NONE',  ( 0.0000000000000000000, 0.0000000000000000000, 0.0000000000000000000 ) ) ;
#29 = DIRECTION ( 'NONE',  ( 1.000000000000000000, 0.0000000000000000000, 0.0000000000000000000 ) ) ;
#30 = DIRECTION ( 'NONE',  ( 0.0000000000000000000, 0.0000000000000000000, 1.000000000000000000 ) ) ;
#31 = CARTESIAN_POINT ( 'NONE',  ( 0.0000000000000000000, 0.0000000000000000000, 0.1250000000000000000 ) ) ;
#32 = DIRECTION ( 'NONE',  ( 1.000000000000000000, 0.0000000000000000000, 0.0000000000000000000 ) ) ;
#33 = DIRECTION ( 'NONE',  ( 0.0000000000000000000, 0.0000000000000000000, 1.000000000000000000 ) ) ;
#34 = CARTESIAN_POINT ( 'NONE',  ( 0.0000000000000000000, 0.0000000000000000000, 0.1250000000000000000 ) ) ;
#35 = DIRECTION ( 'NONE',  ( 1.000000000000000000, 0.0000000000000000000, 0.0000000000000000000 ) ) ;
#36 = DIRECTION ( 'NONE',  ( 0.0000000000000000000, 0.0000000000000000000, 1.000000000000000000 ) ) ;
#37 = CARTESIAN_POINT ( 'NONE',  ( 0.0000000000000000000, 0.0000000000000000000, 0.0000000000000000000 ) ) ;
#38 = DIRECTION ( 'NONE',  ( -0.0000000000000000000, -0.0000000000000000000, -1.000000000000000000 ) ) ;
#39 = CARTESIAN_POINT ( 'NONE',  ( -0.2500000000000000000, 0.0000000000000000000, 0.1250000000000000000 ) ) ;
#40 = LINE ( 'NONE', #39, #135 ) ;
#41 = DIRECTION ( 'NONE',  ( -1.000000000000000000, 0.0000000000000000000, 0.0000000000000000000 ) ) ;
#42 = DIRECTION ( 'NONE',  ( -0.0000000000000000000, -0.0000000000000000000, -1.000000000000000000 ) ) ;
#43 = CARTESIAN_POINT ( 'NONE',  ( 0.0000000000000000000, 0.0000000000000000000, 0.1250000000000000000 ) ) ;
#44 = DIRECTION ( 'NONE',  ( 1.000000000000000000, 0.0000000000000000000, -0.0000000000000000000 ) ) ;
#45 = DIRECTION ( 'NONE',  ( 0.0000000000000000000, 0.0000000000000000000, 1.000000000000000000 ) ) ;
#46 = CARTESIAN_POINT ( 'NONE',  ( 0.0000000000000000000, 0.0000000000000000000, 0.0000000000000000000 ) ) ;
#47 = PLANE ( 'NONE',  #221 ) ;
#48 = DIRECTION ( 'NONE',  ( 1.000000000000000000, 0.0000000000000000000, -0.0000000000000000000 ) ) ;
#49 = DIRECTION ( 'NONE',  ( 0.0000000000000000000, 0.0000000000000000000, 1.000000000000000000 ) ) ;
#50 = CARTESIAN_POINT ( 'NONE',  ( 0.0000000000000000000, 0.0000000000000000000, 0.1250000000000000000 ) ) ;
#51 = PLANE ( 'NONE',  #1 ) ;
#52 = DIRECTION ( 'NONE',  ( -1.000000000000000000, 0.0000000000000000000, 0.0000000000000000000 ) ) ;
#53 = DIRECTION ( 'NONE',  ( -0.0000000000000000000, -0.0000000000000000000, -1.000000000000000000 ) ) ;
#54 = CARTESIAN_POINT ( 'NONE',  ( 0.0000000000000000000, 0.0000000000000000000, 0.1250000000000000000 ) ) ;
#55 = DIRECTION ( 'NONE',  ( -1.000000000000000000, 0.0000000000000000000, 0.0000000000000000000 ) ) ;
#56 = DIRECTION ( 'NONE',  ( -0.0000000000000000000, -0.0000000000000000000, -1.000000000000000000 ) ) ;
#57 = CARTESIAN_POINT ( 'NONE',  ( 0.0000000000000000000, 0.0000000000000000000, 0.1250000000000000000 ) ) ;
#58 = DIRECTION ( 'NONE',  ( -1.000000000000000000, 0.0000000000000000000, 0.0000000000000000000 ) ) ;
#59 = DIRECTION ( 'NONE',  ( -0.0000000000000000000, -0.0000000000000000000, -1.000000000000000000 ) ) ;
#60 = CARTESIAN_POINT ( 'NONE',  ( 0.0000000000000000000, 0.0000000000000000000, 0.1250000000000000000 ) ) ;
#61 =( NAMED_UNIT ( * ) SI_UNIT ( $, .STERADIAN. ) SOLID_ANGLE_UNIT ( ) );
#62 = EDGE_LOOP ( 'NONE', ( #98, #106 ) ) ;
#63 = EDGE_LOOP ( 'NONE', ( #96, #90 ) ) ;
#64 =( NAMED_UNIT ( * ) PLANE_ANGLE_UNIT ( ) SI_UNIT ( $, .RADIAN. ) );
#65 =( CONVERSION_BASED_UNIT ( 'INCH', #168 ) LENGTH_UNIT ( ) NAMED_UNIT ( #123 ) );
#66 =( LENGTH_UNIT ( ) NAMED_UNIT ( * ) SI_UNIT ( $, .METRE. ) );
#67 = EDGE_LOOP ( 'NONE', ( #109, #94, #95, #99 ) ) ;
#68 = SURFACE_STYLE_USAGE ( .BOTH. , #72 ) ;
#69 = PRESENTATION_STYLE_ASSIGNMENT (( #68 ) ) ;
#70 = FILL_AREA_STYLE ('',( #73 ) ) ;
#71 = SURFACE_STYLE_FILL_AREA ( #70 ) ;
#72 = SURFACE_SIDE_STYLE ('',( #71 ) ) ;
#73 = FILL_AREA_STYLE_COLOUR ( '', #197 ) ;
#74 = CARTESIAN_POINT ( 'NONE',  ( -0.1405000000000000100, 0.0000000000000000000, 0.0000000000000000000 ) ) ;
#75 = CARTESIAN_POINT ( 'NONE',  ( -0.2500000000000000000, 0.0000000000000000000, 0.0000000000000000000 ) ) ;
#76 = CARTESIAN_POINT ( 'NONE',  ( 0.2500000000000000000, 3.061616997868383000E-017, 0.0000000000000000000 ) ) ;
#77 = CARTESIAN_POINT ( 'NONE',  ( -0.2500000000000000000, 0.0000000000000000000, 0.1250000000000000000 ) ) ;
#78 = CARTESIAN_POINT ( 'NONE',  ( 0.2500000000000000000, 3.061616997868383000E-017, 0.1250000000000000000 ) ) ;
#79 = CARTESIAN_POINT ( 'NONE',  ( 0.1405000000000000100, 1.720628752802031100E-017, 0.0000000000000000000 ) ) ;
#80 = CARTESIAN_POINT ( 'NONE',  ( -0.1405000000000000100, 0.0000000000000000000, 0.1250000000000000000 ) ) ;
#81 = CARTESIAN_POINT ( 'NONE',  ( 0.1405000000000000100, 1.720628752802031100E-017, 0.1250000000000000000 ) ) ;
#82 = VERTEX_POINT ( 'NONE', #81 ) ;
#83 = VERTEX_POINT ( 'NONE', #80 ) ;
#84 = VERTEX_POINT ( 'NONE', #79 ) ;
#85 = VERTEX_POINT ( 'NONE', #78 ) ;
#86 = VERTEX_POINT ( 'NONE', #77 ) ;
#87 = VERTEX_POINT ( 'NONE', #76 ) ;
#88 = VERTEX_POINT ( 'NONE', #75 ) ;
#89 = VERTEX_POINT ( 'NONE', #74 ) ;
#90 = ORIENTED_EDGE ( 'NONE', *, *, #209, .F. ) ;
#91 = ORIENTED_EDGE ( 'NONE', *, *, #217, .F. ) ;
#92 = ORIENTED_EDGE ( 'NONE', *, *, #214, .T. ) ;
#93 = ORIENTED_EDGE ( 'NONE', *, *, #209, .T. ) ;
#94 = ORIENTED_EDGE ( 'NONE', *, *, #211, .F. ) ;
#95 = ORIENTED_EDGE ( 'NONE', *, *, #208, .T. ) ;
#96 = ORIENTED_EDGE ( 'NONE', *, *, #212, .F. ) ;
#97 = ORIENTED_EDGE ( 'NONE', *, *, #213, .F. ) ;
#98 = ORIENTED_EDGE ( 'NONE', *, *, #216, .T. ) ;
#99 = ORIENTED_EDGE ( 'NONE', *, *, #212, .T. ) ;
#100 = ORIENTED_EDGE ( 'NONE', *, *, #217, .T. ) ;
#101 = ORIENTED_EDGE ( 'NONE', *, *, #211, .T. ) ;
#102 = ORIENTED_EDGE ( 'NONE', *, *, #208, .F. ) ;
#103 = ORIENTED_EDGE ( 'NONE', *, *, #219, .F. ) ;
#104 = ORIENTED_EDGE ( 'NONE', *, *, #215, .F. ) ;
#105 = ORIENTED_EDGE ( 'NONE', *, *, #216, .F. ) ;
#106 = ORIENTED_EDGE ( 'NONE', *, *, #220, .T. ) ;
#107 = ORIENTED_EDGE ( 'NONE', *, *, #219, .T. ) ;
#108 = ORIENTED_EDGE ( 'NONE', *, *, #210, .F. ) ;
#109 = ORIENTED_EDGE ( 'NONE', *, *, #214, .F. ) ;
#110 = ORIENTED_EDGE ( 'NONE', *, *, #220, .F. ) ;
#111 = ORIENTED_EDGE ( 'NONE', *, *, #210, .T. ) ;
#112 = ORIENTED_EDGE ( 'NONE', *, *, #213, .T. ) ;
#113 = ORIENTED_EDGE ( 'NONE', *, *, #215, .T. ) ;
#114 = EDGE_LOOP ( 'NONE', ( #111, #107, #105, #104 ) ) ;
#115 = EDGE_LOOP ( 'NONE', ( #91, #92, #93, #102 ) ) ;
#116 = EDGE_LOOP ( 'NONE', ( #108, #97 ) ) ;
#117 =( GEOMETRIC_REPRESENTATION_CONTEXT ( 3 ) GLOBAL_UNCERTAINTY_ASSIGNED_CONTEXT ( ( #159 ) ) GLOBAL_UNIT_ASSIGNED_CONTEXT ( ( #178, #176, #173 ) ) REPRESENTATION_CONTEXT ( 'NONE', 'WORKASPACE' ) );
#118 =( GEOMETRIC_REPRESENTATION_CONTEXT ( 3 ) GLOBAL_UNCERTAINTY_ASSIGNED_CONTEXT ( ( #152 ) ) GLOBAL_UNIT_ASSIGNED_CONTEXT ( ( #172, #190, #189 ) ) REPRESENTATION_CONTEXT ( 'NONE', 'WORKASPACE' ) );
#119 =( GEOMETRIC_REPRESENTATION_CONTEXT ( 3 ) GLOBAL_UNCERTAINTY_ASSIGNED_CONTEXT ( ( #158 ) ) GLOBAL_UNIT_ASSIGNED_CONTEXT ( ( #65, #64, #61 ) ) REPRESENTATION_CONTEXT ( 'NONE', 'WORKASPACE' ) );
#120 = CYLINDRICAL_SURFACE ( 'NONE', #122, 0.1405000000000000100 ) ;
#121 = FACE_OUTER_BOUND ( 'NONE', #63, .T. ) ;
#122 = AXIS2_PLACEMENT_3D ( 'NONE', #57, #56, #55 ) ;
#123 = DIMENSIONAL_EXPONENTS ( 1.000000000000000000, 0.0000000000000000000, 0.0000000000000000000, 0.0000000000000000000, 0.0000000000000000000, 0.0000000000000000000, 0.0000000000000000000 ) ;
#124 = DIMENSIONAL_EXPONENTS ( 1.000000000000000000, 0.0000000000000000000, 0.0000000000000000000, 0.0000000000000000000, 0.0000000000000000000, 0.0000000000000000000, 0.0000000000000000000 ) ;
#125 = DIMENSIONAL_EXPONENTS ( 1.000000000000000000, 0.0000000000000000000, 0.0000000000000000000, 0.0000000000000000000, 0.0000000000000000000, 0.0000000000000000000, 0.0000000000000000000 ) ;
#126 = PRODUCT ( 'H125DN45', 'H125DN45', '', ( #187 ) ) ;
#127 = PRODUCT_DEFINITION_SHAPE ( 'NONE', 'NONE',  #192 ) ;
#128 = MANIFOLD_SOLID_BREP ( 'Boss-Extrude1', #167 ) ;
#129 = PRODUCT_DEFINITION_CONTEXT ( 'detailed design', #223, 'design' ) ;
#130 = AXIS2_PLACEMENT_3D ( 'NONE', #37, #36, #35 ) ;
#131 = FACE_OUTER_BOUND ( 'NONE', #67, .T. ) ;
#132 = AXIS2_PLACEMENT_3D ( 'NONE', #43, #42, #41 ) ;
#133 = CYLINDRICAL_SURFACE ( 'NONE', #132, 0.2500000000000000000 ) ;
#134 = AXIS2_PLACEMENT_3D ( 'NONE', #25, #24, #23 ) ;
#135 = VECTOR ( 'NONE', #38, 39.37007874015748100 ) ;
#136 = AXIS2_PLACEMENT_3D ( 'NONE', #34, #33, #32 ) ;
#137 = AXIS2_PLACEMENT_3D ( 'NONE', #31, #30, #29 ) ;
#138 = AXIS2_PLACEMENT_3D ( 'NONE', #28, #27, #26 ) ;
#139 = LENGTH_MEASURE_WITH_UNIT ( LENGTH_MEASURE( 0.02539999999999999900 ), #4 );
#140 = AXIS2_PLACEMENT_3D ( 'NONE', #22, #15, #14 ) ;
#141 = VECTOR ( 'NONE', #19, 39.37007874015748100 ) ;
#142 = AXIS2_PLACEMENT_3D ( 'NONE', #10, #6, #5 ) ;
#143 = VECTOR ( 'NONE', #16, 39.37007874015748100 ) ;
#144 = AXIS2_PLACEMENT_3D ( 'NONE', #13, #12, #11 ) ;
#145 = VECTOR ( 'NONE', #7, 39.37007874015748100 ) ;
#146 = STYLED_ITEM ( 'NONE', ( #181 ), #153 ) ;
#147 = PRESENTATION_LAYER_ASSIGNMENT (  '', '', ( #146 ) ) ;
#148 = MECHANICAL_DESIGN_GEOMETRIC_PRESENTATION_REPRESENTATION (  '', ( #146 ), #117 ) ;
#149 = LENGTH_MEASURE_WITH_UNIT ( LENGTH_MEASURE( 0.02539999999999999900 ), #179 );
#150 = AXIS2_PLACEMENT_3D ( 'NONE', #188, #171, #177 ) ;
#151 = PRODUCT_DEFINITION_FORMATION_WITH_SPECIFIED_SOURCE ( 'ANY', '', #126, .NOT_KNOWN. ) ;
#152 = UNCERTAINTY_MEASURE_WITH_UNIT (LENGTH_MEASURE( 1.000000000000000100E-005 ), #172, 'distance_accuracy_value', 'NONE');
#153 = ADVANCED_BREP_SHAPE_REPRESENTATION ( 'H125DN45', ( #128, #150 ), #118 ) ;
#154 = FACE_BOUND ( 'NONE', #116, .T. ) ;
#155 = FACE_BOUND ( 'NONE', #62, .T. ) ;
#156 = AXIS2_PLACEMENT_3D ( 'NONE', #54, #53, #52 ) ;
#157 = CYLINDRICAL_SURFACE ( 'NONE', #156, 0.2500000000000000000 ) ;
#158 = UNCERTAINTY_MEASURE_WITH_UNIT (LENGTH_MEASURE( 1.000000000000000100E-005 ), #65, 'distance_accuracy_value', 'NONE');
#159 = UNCERTAINTY_MEASURE_WITH_UNIT (LENGTH_MEASURE( 1.000000000000000100E-005 ), #178, 'distance_accuracy_value', 'NONE');
#160 = STYLED_ITEM ( 'NONE', ( #69 ), #128 ) ;
#161 = MECHANICAL_DESIGN_GEOMETRIC_PRESENTATION_REPRESENTATION (  '', ( #160 ), #119 ) ;
#162 = FACE_OUTER_BOUND ( 'NONE', #3, .T. ) ;
#163 = CYLINDRICAL_SURFACE ( 'NONE', #170, 0.1405000000000000100 ) ;
#164 = PRESENTATION_LAYER_ASSIGNMENT (  '', '', ( #160 ) ) ;
#165 = FACE_OUTER_BOUND ( 'NONE', #114, .T. ) ;
#166 = FACE_OUTER_BOUND ( 'NONE', #2, .T. ) ;
#167 = CLOSED_SHELL ( 'NONE', ( #203, #204, #205, #206, #207, #202 ) ) ;
#168 = LENGTH_MEASURE_WITH_UNIT ( LENGTH_MEASURE( 0.02539999999999999900 ), #66 );
#169 = FACE_OUTER_BOUND ( 'NONE', #115, .T. ) ;
#170 = AXIS2_PLACEMENT_3D ( 'NONE', #60, #59, #58 ) ;
#171 = DIRECTION ( 'NONE',  ( 0.0000000000000000000, 0.0000000000000000000, 1.000000000000000000 ) ) ;
#172 =( CONVERSION_BASED_UNIT ( 'INCH', #139 ) LENGTH_UNIT ( ) NAMED_UNIT ( #125 ) );
#173 =( NAMED_UNIT ( * ) SI_UNIT ( $, .STERADIAN. ) SOLID_ANGLE_UNIT ( ) );
#174 = APPLICATION_PROTOCOL_DEFINITION ( 'draft international standard', 'automotive_design', 1998, #223 ) ;
#175 = SHAPE_DEFINITION_REPRESENTATION ( #127, #153 ) ;
#176 =( NAMED_UNIT ( * ) PLANE_ANGLE_UNIT ( ) SI_UNIT ( $, .RADIAN. ) );
#177 = DIRECTION ( 'NONE',  ( 1.000000000000000000, 0.0000000000000000000, 0.0000000000000000000 ) ) ;
#178 =( CONVERSION_BASED_UNIT ( 'INCH', #149 ) LENGTH_UNIT ( ) NAMED_UNIT ( #124 ) );
#179 =( LENGTH_UNIT ( ) NAMED_UNIT ( * ) SI_UNIT ( $, .METRE. ) );
#180 = SURFACE_STYLE_USAGE ( .BOTH. , #184 ) ;
#181 = PRESENTATION_STYLE_ASSIGNMENT (( #180 ) ) ;
#182 = FILL_AREA_STYLE ('',( #185 ) ) ;
#183 = SURFACE_STYLE_FILL_AREA ( #182 ) ;
#184 = SURFACE_SIDE_STYLE ('',( #183 ) ) ;
#185 = FILL_AREA_STYLE_COLOUR ( '', #193 ) ;
#186 = APPLICATION_PROTOCOL_DEFINITION ( 'draft international standard', 'automotive_design', 1998, #222 ) ;
#187 = PRODUCT_CONTEXT ( 'NONE', #222, 'mechanical' ) ;
#188 = CARTESIAN_POINT ( 'NONE',  ( 0.0000000000000000000, 0.0000000000000000000, 0.0000000000000000000 ) ) ;
#189 =( NAMED_UNIT ( * ) SI_UNIT ( $, .STERADIAN. ) SOLID_ANGLE_UNIT ( ) );
#190 =( NAMED_UNIT ( * ) PLANE_ANGLE_UNIT ( ) SI_UNIT ( $, .RADIAN. ) );
#191 = PRODUCT_RELATED_PRODUCT_CATEGORY ( 'part', '', ( #126 ) ) ;
#192 = PRODUCT_DEFINITION ( 'UNKNOWN', '', #151, #129 ) ;
#193 = COLOUR_RGB ( '',0.5686274509803921400, 0.5686274509803921400, 0.5882352941176470800 ) ;
#194 = CIRCLE ( 'NONE', #142, 0.1405000000000000100 ) ;
#195 = CIRCLE ( 'NONE', #144, 0.2500000000000000000 ) ;
#196 = CIRCLE ( 'NONE', #140, 0.1405000000000000100 ) ;
#197 = COLOUR_RGB ( '',0.5686274509803921400, 0.5686274509803921400, 0.5882352941176470800 ) ;
#198 = CIRCLE ( 'NONE', #134, 0.1405000000000000100 ) ;
#199 = CIRCLE ( 'NONE', #130, 0.2500000000000000000 ) ;
#200 = CIRCLE ( 'NONE', #136, 0.1405000000000000100 ) ;
#201 = CIRCLE ( 'NONE', #137, 0.2500000000000000000 ) ;
#202 = ADVANCED_FACE ( 'NONE', ( #162 ), #163, .F. ) ;
#203 = ADVANCED_FACE ( 'NONE', ( #165 ), #120, .F. ) ;
#204 = ADVANCED_FACE ( 'NONE', ( #169 ), #157, .T. ) ;
#205 = ADVANCED_FACE ( 'NONE', ( #166, #154 ), #51, .T. ) ;
#206 = ADVANCED_FACE ( 'NONE', ( #121, #155 ), #47, .F. ) ;
#207 = ADVANCED_FACE ( 'NONE', ( #131 ), #133, .T. ) ;
#208 = EDGE_CURVE ( 'NONE', #86, #88, #40, .T. ) ;
#209 = EDGE_CURVE ( 'NONE', #87, #88, #199, .T. ) ;
#210 = EDGE_CURVE ( 'NONE', #83, #82, #200, .T. ) ;
#211 = EDGE_CURVE ( 'NONE', #86, #85, #201, .T. ) ;
#212 = EDGE_CURVE ( 'NONE', #88, #87, #218, .T. ) ;
#213 = EDGE_CURVE ( 'NONE', #82, #83, #198, .T. ) ;
#214 = EDGE_CURVE ( 'NONE', #85, #87, #21, .T. ) ;
#215 = EDGE_CURVE ( 'NONE', #83, #89, #18, .T. ) ;
#216 = EDGE_CURVE ( 'NONE', #89, #84, #196, .T. ) ;
#217 = EDGE_CURVE ( 'NONE', #85, #86, #195, .T. ) ;
#218 = CIRCLE ( 'NONE', #138, 0.2500000000000000000 ) ;
#219 = EDGE_CURVE ( 'NONE', #82, #84, #9, .T. ) ;
#220 = EDGE_CURVE ( 'NONE', #84, #89, #194, .T. ) ;
#221 = AXIS2_PLACEMENT_3D ( 'NONE', #46, #45, #44 ) ;
#222 = APPLICATION_CONTEXT ( 'automotive_design' ) ;
#223 = APPLICATION_CONTEXT ( 'automotive_design' ) ;
ENDSEC;
END-ISO-10303-21;
