ISO-10303-21;
HEADER;
FILE_DESCRIPTION (( 'STEP AP214' ),
    '1' );
FILE_NAME ('H20933.step',
    '2012-04-20T20:58:57',
    ( '' ),
    ( '' ),
    'SwSTEP 2.0',
    'SolidWorks 2012',
    '' );
FILE_SCHEMA (( 'AUTOMOTIVE_DESIGN' ));
ENDSEC;

DATA;
#1 = AXIS2_PLACEMENT_3D ( 'NONE', #38, #37, #36 ) ;
#2 = UNCERTAINTY_MEASURE_WITH_UNIT (LENGTH_MEASURE( 1.000000000000000100E-005 ), #63, 'distance_accuracy_value', 'NONE');
#3 = CARTESIAN_POINT ( 'NONE',  ( 0.2650000000000000100, 3.245314017740486200E-017, 0.07900000000000000100 ) ) ;
#4 = LINE ( 'NONE', #3, #155 ) ;
#5 = DIRECTION ( 'NONE',  ( 1.000000000000000000, 0.0000000000000000000, -0.0000000000000000000 ) ) ;
#6 = DIRECTION ( 'NONE',  ( 0.0000000000000000000, 0.0000000000000000000, 1.000000000000000000 ) ) ;
#7 = CARTESIAN_POINT ( 'NONE',  ( 0.0000000000000000000, 0.0000000000000000000, 0.0000000000000000000 ) ) ;
#8 = PLANE ( 'NONE',  #154 ) ;
#9 = DIRECTION ( 'NONE',  ( -1.000000000000000000, 0.0000000000000000000, 0.0000000000000000000 ) ) ;
#10 = DIRECTION ( 'NONE',  ( -0.0000000000000000000, -0.0000000000000000000, -1.000000000000000000 ) ) ;
#11 = CARTESIAN_POINT ( 'NONE',  ( 0.0000000000000000000, 0.0000000000000000000, 0.07900000000000000100 ) ) ;
#12 = DIRECTION ( 'NONE',  ( -1.000000000000000000, 0.0000000000000000000, 0.0000000000000000000 ) ) ;
#13 = DIRECTION ( 'NONE',  ( -0.0000000000000000000, -0.0000000000000000000, -1.000000000000000000 ) ) ;
#14 = CARTESIAN_POINT ( 'NONE',  ( 0.0000000000000000000, 0.0000000000000000000, 0.07900000000000000100 ) ) ;
#15 = DIRECTION ( 'NONE',  ( 1.000000000000000000, 0.0000000000000000000, 0.0000000000000000000 ) ) ;
#16 = DIRECTION ( 'NONE',  ( 0.0000000000000000000, 0.0000000000000000000, 1.000000000000000000 ) ) ;
#17 = CARTESIAN_POINT ( 'NONE',  ( 0.0000000000000000000, 0.0000000000000000000, 0.0000000000000000000 ) ) ;
#18 = DIRECTION ( 'NONE',  ( 1.000000000000000000, 0.0000000000000000000, 0.0000000000000000000 ) ) ;
#19 = DIRECTION ( 'NONE',  ( 0.0000000000000000000, 0.0000000000000000000, 1.000000000000000000 ) ) ;
#20 = CARTESIAN_POINT ( 'NONE',  ( 0.0000000000000000000, 0.0000000000000000000, 0.0000000000000000000 ) ) ;
#21 = DIRECTION ( 'NONE',  ( 1.000000000000000000, 0.0000000000000000000, 0.0000000000000000000 ) ) ;
#22 = DIRECTION ( 'NONE',  ( 0.0000000000000000000, 0.0000000000000000000, 1.000000000000000000 ) ) ;
#23 = DIRECTION ( 'NONE',  ( -0.0000000000000000000, -0.0000000000000000000, -1.000000000000000000 ) ) ;
#24 = CARTESIAN_POINT ( 'NONE',  ( -0.1860000000000000000, 0.0000000000000000000, 0.07900000000000000100 ) ) ;
#25 = LINE ( 'NONE', #24, #145 ) ;
#26 = CARTESIAN_POINT ( 'NONE',  ( 0.0000000000000000000, 0.0000000000000000000, 0.07900000000000000100 ) ) ;
#27 = DIRECTION ( 'NONE',  ( 1.000000000000000000, 0.0000000000000000000, 0.0000000000000000000 ) ) ;
#28 = DIRECTION ( 'NONE',  ( 0.0000000000000000000, 0.0000000000000000000, 1.000000000000000000 ) ) ;
#29 = CARTESIAN_POINT ( 'NONE',  ( 0.0000000000000000000, 0.0000000000000000000, 0.07900000000000000100 ) ) ;
#30 = DIRECTION ( 'NONE',  ( 1.000000000000000000, 0.0000000000000000000, 0.0000000000000000000 ) ) ;
#31 = DIRECTION ( 'NONE',  ( 0.0000000000000000000, 0.0000000000000000000, 1.000000000000000000 ) ) ;
#32 = CARTESIAN_POINT ( 'NONE',  ( 0.0000000000000000000, 0.0000000000000000000, 0.0000000000000000000 ) ) ;
#33 = DIRECTION ( 'NONE',  ( 1.000000000000000000, 0.0000000000000000000, 0.0000000000000000000 ) ) ;
#34 = DIRECTION ( 'NONE',  ( 0.0000000000000000000, 0.0000000000000000000, 1.000000000000000000 ) ) ;
#35 = CARTESIAN_POINT ( 'NONE',  ( 0.0000000000000000000, 0.0000000000000000000, 0.0000000000000000000 ) ) ;
#36 = DIRECTION ( 'NONE',  ( 1.000000000000000000, 0.0000000000000000000, 0.0000000000000000000 ) ) ;
#37 = DIRECTION ( 'NONE',  ( 0.0000000000000000000, 0.0000000000000000000, 1.000000000000000000 ) ) ;
#38 = CARTESIAN_POINT ( 'NONE',  ( 0.0000000000000000000, 0.0000000000000000000, 0.07900000000000000100 ) ) ;
#39 = DIRECTION ( 'NONE',  ( 1.000000000000000000, 0.0000000000000000000, 0.0000000000000000000 ) ) ;
#40 = DIRECTION ( 'NONE',  ( 0.0000000000000000000, 0.0000000000000000000, 1.000000000000000000 ) ) ;
#41 = CARTESIAN_POINT ( 'NONE',  ( 0.0000000000000000000, 0.0000000000000000000, 0.07900000000000000100 ) ) ;
#42 = DIRECTION ( 'NONE',  ( -0.0000000000000000000, -0.0000000000000000000, -1.000000000000000000 ) ) ;
#43 = CARTESIAN_POINT ( 'NONE',  ( 0.1860000000000000000, 2.277843046414077200E-017, 0.07900000000000000100 ) ) ;
#44 = LINE ( 'NONE', #43, #138 ) ;
#45 = DIRECTION ( 'NONE',  ( -1.000000000000000000, 0.0000000000000000000, 0.0000000000000000000 ) ) ;
#46 = DIRECTION ( 'NONE',  ( -0.0000000000000000000, -0.0000000000000000000, -1.000000000000000000 ) ) ;
#47 = CARTESIAN_POINT ( 'NONE',  ( 0.0000000000000000000, 0.0000000000000000000, 0.07900000000000000100 ) ) ;
#48 = DIRECTION ( 'NONE',  ( -1.000000000000000000, 0.0000000000000000000, 0.0000000000000000000 ) ) ;
#49 = DIRECTION ( 'NONE',  ( -0.0000000000000000000, -0.0000000000000000000, -1.000000000000000000 ) ) ;
#50 = CARTESIAN_POINT ( 'NONE',  ( 0.0000000000000000000, 0.0000000000000000000, 0.07900000000000000100 ) ) ;
#51 = DIRECTION ( 'NONE',  ( 1.000000000000000000, 0.0000000000000000000, -0.0000000000000000000 ) ) ;
#52 = DIRECTION ( 'NONE',  ( 0.0000000000000000000, 0.0000000000000000000, 1.000000000000000000 ) ) ;
#53 = CARTESIAN_POINT ( 'NONE',  ( 0.0000000000000000000, 0.0000000000000000000, 0.07900000000000000100 ) ) ;
#54 = PLANE ( 'NONE',  #176 ) ;
#55 = EDGE_LOOP ( 'NONE', ( #85, #89, #90, #88 ) ) ;
#56 = EDGE_LOOP ( 'NONE', ( #102, #100 ) ) ;
#57 = EDGE_LOOP ( 'NONE', ( #92, #93, #94, #91 ) ) ;
#58 = SURFACE_STYLE_USAGE ( .BOTH. , #60 ) ;
#59 =( LENGTH_UNIT ( ) NAMED_UNIT ( * ) SI_UNIT ( $, .METRE. ) );
#60 = SURFACE_SIDE_STYLE ('',( #65 ) ) ;
#61 =( NAMED_UNIT ( * ) PLANE_ANGLE_UNIT ( ) SI_UNIT ( $, .RADIAN. ) );
#62 =( NAMED_UNIT ( * ) SI_UNIT ( $, .STERADIAN. ) SOLID_ANGLE_UNIT ( ) );
#63 =( CONVERSION_BASED_UNIT ( 'INCH', #169 ) LENGTH_UNIT ( ) NAMED_UNIT ( #115 ) );
#64 = PRESENTATION_STYLE_ASSIGNMENT (( #58 ) ) ;
#65 = SURFACE_STYLE_FILL_AREA ( #66 ) ;
#66 = FILL_AREA_STYLE ('',( #67 ) ) ;
#67 = FILL_AREA_STYLE_COLOUR ( '', #132 ) ;
#68 = CARTESIAN_POINT ( 'NONE',  ( -0.1860000000000000000, 0.0000000000000000000, 0.07900000000000000100 ) ) ;
#69 = CARTESIAN_POINT ( 'NONE',  ( 0.1860000000000000000, 2.277843046414077200E-017, 0.0000000000000000000 ) ) ;
#70 = CARTESIAN_POINT ( 'NONE',  ( -0.2650000000000000100, 0.0000000000000000000, 0.0000000000000000000 ) ) ;
#71 = CARTESIAN_POINT ( 'NONE',  ( 0.2650000000000000100, 3.245314017740486200E-017, 0.0000000000000000000 ) ) ;
#72 = CARTESIAN_POINT ( 'NONE',  ( -0.2650000000000000100, 0.0000000000000000000, 0.07900000000000000100 ) ) ;
#73 = CARTESIAN_POINT ( 'NONE',  ( -0.1860000000000000000, 0.0000000000000000000, 0.0000000000000000000 ) ) ;
#74 = CARTESIAN_POINT ( 'NONE',  ( 0.2650000000000000100, 3.245314017740486200E-017, 0.07900000000000000100 ) ) ;
#75 = CARTESIAN_POINT ( 'NONE',  ( 0.1860000000000000000, 2.277843046414077200E-017, 0.07900000000000000100 ) ) ;
#76 = VERTEX_POINT ( 'NONE', #75 ) ;
#77 = VERTEX_POINT ( 'NONE', #74 ) ;
#78 = VERTEX_POINT ( 'NONE', #73 ) ;
#79 = VERTEX_POINT ( 'NONE', #72 ) ;
#80 = VERTEX_POINT ( 'NONE', #71 ) ;
#81 = VERTEX_POINT ( 'NONE', #70 ) ;
#82 = VERTEX_POINT ( 'NONE', #69 ) ;
#83 = VERTEX_POINT ( 'NONE', #68 ) ;
#84 = ORIENTED_EDGE ( 'NONE', *, *, #217, .F. ) ;
#85 = ORIENTED_EDGE ( 'NONE', *, *, #221, .F. ) ;
#86 = ORIENTED_EDGE ( 'NONE', *, *, #211, .F. ) ;
#87 = ORIENTED_EDGE ( 'NONE', *, *, #216, .T. ) ;
#88 = ORIENTED_EDGE ( 'NONE', *, *, #217, .T. ) ;
#89 = ORIENTED_EDGE ( 'NONE', *, *, #213, .F. ) ;
#90 = ORIENTED_EDGE ( 'NONE', *, *, #223, .T. ) ;
#91 = ORIENTED_EDGE ( 'NONE', *, *, #216, .F. ) ;
#92 = ORIENTED_EDGE ( 'NONE', *, *, #206, .F. ) ;
#93 = ORIENTED_EDGE ( 'NONE', *, *, #215, .T. ) ;
#94 = ORIENTED_EDGE ( 'NONE', *, *, #214, .T. ) ;
#95 = ORIENTED_EDGE ( 'NONE', *, *, #215, .F. ) ;
#96 = ORIENTED_EDGE ( 'NONE', *, *, #212, .T. ) ;
#97 = ORIENTED_EDGE ( 'NONE', *, *, #212, .F. ) ;
#98 = ORIENTED_EDGE ( 'NONE', *, *, #206, .T. ) ;
#99 = ORIENTED_EDGE ( 'NONE', *, *, #223, .F. ) ;
#100 = ORIENTED_EDGE ( 'NONE', *, *, #210, .T. ) ;
#101 = ORIENTED_EDGE ( 'NONE', *, *, #209, .T. ) ;
#102 = ORIENTED_EDGE ( 'NONE', *, *, #213, .T. ) ;
#103 = ORIENTED_EDGE ( 'NONE', *, *, #209, .F. ) ;
#104 = ORIENTED_EDGE ( 'NONE', *, *, #221, .T. ) ;
#105 = ORIENTED_EDGE ( 'NONE', *, *, #211, .T. ) ;
#106 = ORIENTED_EDGE ( 'NONE', *, *, #210, .F. ) ;
#107 = ORIENTED_EDGE ( 'NONE', *, *, #214, .F. ) ;
#108 = EDGE_LOOP ( 'NONE', ( #101, #98, #97, #107 ) ) ;
#109 = EDGE_LOOP ( 'NONE', ( #106, #104, #105, #99 ) ) ;
#110 = EDGE_LOOP ( 'NONE', ( #103, #95 ) ) ;
#111 = EDGE_LOOP ( 'NONE', ( #84, #86 ) ) ;
#112 = EDGE_LOOP ( 'NONE', ( #96, #87 ) ) ;
#113 = AXIS2_PLACEMENT_3D ( 'NONE', #50, #49, #48 ) ;
#114 = CYLINDRICAL_SURFACE ( 'NONE', #113, 0.2650000000000000100 ) ;
#115 = DIMENSIONAL_EXPONENTS ( 1.000000000000000000, 0.0000000000000000000, 0.0000000000000000000, 0.0000000000000000000, 0.0000000000000000000, 0.0000000000000000000, 0.0000000000000000000 ) ;
#116 = DIMENSIONAL_EXPONENTS ( 1.000000000000000000, 0.0000000000000000000, 0.0000000000000000000, 0.0000000000000000000, 0.0000000000000000000, 0.0000000000000000000, 0.0000000000000000000 ) ;
#117 = PRODUCT ( 'H20933', 'H20933', '', ( #186 ) ) ;
#118 = DIMENSIONAL_EXPONENTS ( 1.000000000000000000, 0.0000000000000000000, 0.0000000000000000000, 0.0000000000000000000, 0.0000000000000000000, 0.0000000000000000000, 0.0000000000000000000 ) ;
#119 = PRODUCT_DEFINITION_CONTEXT ( 'detailed design', #205, 'design' ) ;
#120 = MANIFOLD_SOLID_BREP ( 'Boss-Extrude1', #172 ) ;
#121 = PRODUCT_DEFINITION_SHAPE ( 'NONE', 'NONE',  #207 ) ;
#122 = UNCERTAINTY_MEASURE_WITH_UNIT (LENGTH_MEASURE( 1.000000000000000100E-005 ), #179, 'distance_accuracy_value', 'NONE');
#123 = ADVANCED_BREP_SHAPE_REPRESENTATION ( 'H20933', ( #120, #161 ), #163 ) ;
#124 = UNCERTAINTY_MEASURE_WITH_UNIT (LENGTH_MEASURE( 1.000000000000000100E-005 ), #200, 'distance_accuracy_value', 'NONE');
#125 = ADVANCED_FACE ( 'NONE', ( #171, #173 ), #54, .T. ) ;
#126 = ADVANCED_FACE ( 'NONE', ( #175 ), #114, .T. ) ;
#127 = ADVANCED_FACE ( 'NONE', ( #170 ), #203, .F. ) ;
#128 = CIRCLE ( 'NONE', #141, 0.2650000000000000100 ) ;
#129 = CIRCLE ( 'NONE', #166, 0.1860000000000000000 ) ;
#130 = CIRCLE ( 'NONE', #1, 0.2650000000000000100 ) ;
#131 = CIRCLE ( 'NONE', #142, 0.1860000000000000000 ) ;
#132 = COLOUR_RGB ( '',0.5686274509803921400, 0.5686274509803921400, 0.5882352941176470800 ) ;
#133 = CIRCLE ( 'NONE', #143, 0.2650000000000000100 ) ;
#134 = CIRCLE ( 'NONE', #144, 0.1860000000000000000 ) ;
#135 = CIRCLE ( 'NONE', #139, 0.1860000000000000000 ) ;
#136 = CIRCLE ( 'NONE', #137, 0.2650000000000000100 ) ;
#137 = AXIS2_PLACEMENT_3D ( 'NONE', #17, #16, #15 ) ;
#138 = VECTOR ( 'NONE', #42, 39.37007874015748100 ) ;
#139 = AXIS2_PLACEMENT_3D ( 'NONE', #20, #19, #18 ) ;
#140 = CYLINDRICAL_SURFACE ( 'NONE', #148, 0.1860000000000000000 ) ;
#141 = AXIS2_PLACEMENT_3D ( 'NONE', #35, #34, #33 ) ;
#142 = AXIS2_PLACEMENT_3D ( 'NONE', #32, #31, #30 ) ;
#143 = AXIS2_PLACEMENT_3D ( 'NONE', #29, #28, #27 ) ;
#144 = AXIS2_PLACEMENT_3D ( 'NONE', #26, #22, #21 ) ;
#145 = VECTOR ( 'NONE', #23, 39.37007874015748100 ) ;
#146 = FACE_OUTER_BOUND ( 'NONE', #55, .T. ) ;
#147 = FACE_OUTER_BOUND ( 'NONE', #57, .T. ) ;
#148 = AXIS2_PLACEMENT_3D ( 'NONE', #14, #13, #12 ) ;
#149 = FACE_OUTER_BOUND ( 'NONE', #111, .T. ) ;
#150 = AXIS2_PLACEMENT_3D ( 'NONE', #11, #10, #9 ) ;
#151 = CYLINDRICAL_SURFACE ( 'NONE', #150, 0.2650000000000000100 ) ;
#152 = FACE_BOUND ( 'NONE', #112, .T. ) ;
#153 = LENGTH_MEASURE_WITH_UNIT ( LENGTH_MEASURE( 0.02539999999999999900 ), #196 );
#154 = AXIS2_PLACEMENT_3D ( 'NONE', #7, #6, #5 ) ;
#155 = VECTOR ( 'NONE', #198, 39.37007874015748100 ) ;
#156 = VECTOR ( 'NONE', #201, 39.37007874015748100 ) ;
#157 = STYLED_ITEM ( 'NONE', ( #181 ), #123 ) ;
#158 = PRESENTATION_LAYER_ASSIGNMENT (  '', '', ( #157 ) ) ;
#159 = MECHANICAL_DESIGN_GEOMETRIC_PRESENTATION_REPRESENTATION (  '', ( #157 ), #165 ) ;
#160 = LENGTH_MEASURE_WITH_UNIT ( LENGTH_MEASURE( 0.02539999999999999900 ), #183 );
#161 = AXIS2_PLACEMENT_3D ( 'NONE', #193, #191, #192 ) ;
#162 = PRODUCT_DEFINITION_FORMATION_WITH_SPECIFIED_SOURCE ( 'ANY', '', #117, .NOT_KNOWN. ) ;
#163 =( GEOMETRIC_REPRESENTATION_CONTEXT ( 3 ) GLOBAL_UNCERTAINTY_ASSIGNED_CONTEXT ( ( #124 ) ) GLOBAL_UNIT_ASSIGNED_CONTEXT ( ( #200, #194, #190 ) ) REPRESENTATION_CONTEXT ( 'NONE', 'WORKASPACE' ) );
#164 =( GEOMETRIC_REPRESENTATION_CONTEXT ( 3 ) GLOBAL_UNCERTAINTY_ASSIGNED_CONTEXT ( ( #2 ) ) GLOBAL_UNIT_ASSIGNED_CONTEXT ( ( #63, #61, #62 ) ) REPRESENTATION_CONTEXT ( 'NONE', 'WORKASPACE' ) );
#165 =( GEOMETRIC_REPRESENTATION_CONTEXT ( 3 ) GLOBAL_UNCERTAINTY_ASSIGNED_CONTEXT ( ( #122 ) ) GLOBAL_UNIT_ASSIGNED_CONTEXT ( ( #179, #178, #177 ) ) REPRESENTATION_CONTEXT ( 'NONE', 'WORKASPACE' ) );
#166 = AXIS2_PLACEMENT_3D ( 'NONE', #41, #40, #39 ) ;
#167 = MECHANICAL_DESIGN_GEOMETRIC_PRESENTATION_REPRESENTATION (  '', ( #174 ), #164 ) ;
#168 = PRESENTATION_LAYER_ASSIGNMENT (  '', '', ( #174 ) ) ;
#169 = LENGTH_MEASURE_WITH_UNIT ( LENGTH_MEASURE( 0.02539999999999999900 ), #59 );
#170 = FACE_OUTER_BOUND ( 'NONE', #108, .T. ) ;
#171 = FACE_OUTER_BOUND ( 'NONE', #56, .T. ) ;
#172 = CLOSED_SHELL ( 'NONE', ( #127, #126, #125, #220, #219, #218 ) ) ;
#173 = FACE_BOUND ( 'NONE', #110, .T. ) ;
#174 = STYLED_ITEM ( 'NONE', ( #64 ), #120 ) ;
#175 = FACE_OUTER_BOUND ( 'NONE', #109, .T. ) ;
#176 = AXIS2_PLACEMENT_3D ( 'NONE', #53, #52, #51 ) ;
#177 =( NAMED_UNIT ( * ) SI_UNIT ( $, .STERADIAN. ) SOLID_ANGLE_UNIT ( ) );
#178 =( NAMED_UNIT ( * ) PLANE_ANGLE_UNIT ( ) SI_UNIT ( $, .RADIAN. ) );
#179 =( CONVERSION_BASED_UNIT ( 'INCH', #160 ) LENGTH_UNIT ( ) NAMED_UNIT ( #116 ) );
#180 = FILL_AREA_STYLE ('',( #185 ) ) ;
#181 = PRESENTATION_STYLE_ASSIGNMENT (( #182 ) ) ;
#182 = SURFACE_STYLE_USAGE ( .BOTH. , #184 ) ;
#183 =( LENGTH_UNIT ( ) NAMED_UNIT ( * ) SI_UNIT ( $, .METRE. ) );
#184 = SURFACE_SIDE_STYLE ('',( #187 ) ) ;
#185 = FILL_AREA_STYLE_COLOUR ( '', #222 ) ;
#186 = PRODUCT_CONTEXT ( 'NONE', #204, 'mechanical' ) ;
#187 = SURFACE_STYLE_FILL_AREA ( #180 ) ;
#188 = APPLICATION_PROTOCOL_DEFINITION ( 'draft international standard', 'automotive_design', 1998, #204 ) ;
#189 = APPLICATION_PROTOCOL_DEFINITION ( 'draft international standard', 'automotive_design', 1998, #205 ) ;
#190 =( NAMED_UNIT ( * ) SI_UNIT ( $, .STERADIAN. ) SOLID_ANGLE_UNIT ( ) );
#191 = DIRECTION ( 'NONE',  ( 0.0000000000000000000, 0.0000000000000000000, 1.000000000000000000 ) ) ;
#192 = DIRECTION ( 'NONE',  ( 1.000000000000000000, 0.0000000000000000000, 0.0000000000000000000 ) ) ;
#193 = CARTESIAN_POINT ( 'NONE',  ( 0.0000000000000000000, 0.0000000000000000000, 0.0000000000000000000 ) ) ;
#194 =( NAMED_UNIT ( * ) PLANE_ANGLE_UNIT ( ) SI_UNIT ( $, .RADIAN. ) );
#195 = SHAPE_DEFINITION_REPRESENTATION ( #121, #123 ) ;
#196 =( LENGTH_UNIT ( ) NAMED_UNIT ( * ) SI_UNIT ( $, .METRE. ) );
#197 = LINE ( 'NONE', #199, #156 ) ;
#198 = DIRECTION ( 'NONE',  ( -0.0000000000000000000, -0.0000000000000000000, -1.000000000000000000 ) ) ;
#199 = CARTESIAN_POINT ( 'NONE',  ( -0.2650000000000000100, 0.0000000000000000000, 0.07900000000000000100 ) ) ;
#200 =( CONVERSION_BASED_UNIT ( 'INCH', #153 ) LENGTH_UNIT ( ) NAMED_UNIT ( #118 ) );
#201 = DIRECTION ( 'NONE',  ( -0.0000000000000000000, -0.0000000000000000000, -1.000000000000000000 ) ) ;
#202 = AXIS2_PLACEMENT_3D ( 'NONE', #47, #46, #45 ) ;
#203 = CYLINDRICAL_SURFACE ( 'NONE', #202, 0.1860000000000000000 ) ;
#204 = APPLICATION_CONTEXT ( 'automotive_design' ) ;
#205 = APPLICATION_CONTEXT ( 'automotive_design' ) ;
#206 = EDGE_CURVE ( 'NONE', #76, #82, #44, .T. ) ;
#207 = PRODUCT_DEFINITION ( 'UNKNOWN', '', #162, #119 ) ;
#208 = PRODUCT_RELATED_PRODUCT_CATEGORY ( 'part', '', ( #117 ) ) ;
#209 = EDGE_CURVE ( 'NONE', #83, #76, #129, .T. ) ;
#210 = EDGE_CURVE ( 'NONE', #77, #79, #130, .T. ) ;
#211 = EDGE_CURVE ( 'NONE', #80, #81, #128, .T. ) ;
#212 = EDGE_CURVE ( 'NONE', #78, #82, #131, .T. ) ;
#213 = EDGE_CURVE ( 'NONE', #79, #77, #133, .T. ) ;
#214 = EDGE_CURVE ( 'NONE', #83, #78, #25, .T. ) ;
#215 = EDGE_CURVE ( 'NONE', #76, #83, #134, .T. ) ;
#216 = EDGE_CURVE ( 'NONE', #82, #78, #135, .T. ) ;
#217 = EDGE_CURVE ( 'NONE', #81, #80, #136, .T. ) ;
#218 = ADVANCED_FACE ( 'NONE', ( #147 ), #140, .F. ) ;
#219 = ADVANCED_FACE ( 'NONE', ( #146 ), #151, .T. ) ;
#220 = ADVANCED_FACE ( 'NONE', ( #149, #152 ), #8, .F. ) ;
#221 = EDGE_CURVE ( 'NONE', #77, #80, #4, .T. ) ;
#222 = COLOUR_RGB ( '',0.5686274509803921400, 0.5686274509803921400, 0.5882352941176470800 ) ;
#223 = EDGE_CURVE ( 'NONE', #79, #81, #197, .T. ) ;
ENDSEC;
END-ISO-10303-21;
