ISO-10303-21;
HEADER;
FILE_DESCRIPTION (( 'STEP AP214' ),
    '1' );
FILE_NAME ('H250-2750-1000.step',
    '2012-04-20T20:59:02',
    ( '' ),
    ( '' ),
    'SwSTEP 2.0',
    'SolidWorks 2012',
    '' );
FILE_SCHEMA (( 'AUTOMOTIVE_DESIGN' ));
ENDSEC;

DATA;
#1 = DIRECTION ( 'NONE',  ( -1.000000000000000000, 0.0000000000000000000, 0.0000000000000000000 ) ) ;
#2 = DIRECTION ( 'NONE',  ( -0.0000000000000000000, -0.0000000000000000000, -1.000000000000000000 ) ) ;
#3 = CARTESIAN_POINT ( 'NONE',  ( 0.0000000000000000000, 0.0000000000000000000, 0.2500000000000000000 ) ) ;
#4 = DIRECTION ( 'NONE',  ( 1.000000000000000000, 0.0000000000000000000, -0.0000000000000000000 ) ) ;
#5 = DIRECTION ( 'NONE',  ( 0.0000000000000000000, 0.0000000000000000000, 1.000000000000000000 ) ) ;
#6 = CARTESIAN_POINT ( 'NONE',  ( 0.0000000000000000000, 0.0000000000000000000, 0.2500000000000000000 ) ) ;
#7 = PLANE ( 'NONE',  #187 ) ;
#8 = DIRECTION ( 'NONE',  ( 1.000000000000000000, 0.0000000000000000000, -0.0000000000000000000 ) ) ;
#9 = DIRECTION ( 'NONE',  ( 0.0000000000000000000, 0.0000000000000000000, 1.000000000000000000 ) ) ;
#10 = CARTESIAN_POINT ( 'NONE',  ( 0.0000000000000000000, 0.0000000000000000000, 0.0000000000000000000 ) ) ;
#11 = PLANE ( 'NONE',  #185 ) ;
#12 = DIRECTION ( 'NONE',  ( -1.000000000000000000, 0.0000000000000000000, 0.0000000000000000000 ) ) ;
#13 = DIRECTION ( 'NONE',  ( -0.0000000000000000000, -0.0000000000000000000, -1.000000000000000000 ) ) ;
#14 = CARTESIAN_POINT ( 'NONE',  ( 0.0000000000000000000, 0.0000000000000000000, 0.2500000000000000000 ) ) ;
#15 = DIRECTION ( 'NONE',  ( -1.000000000000000000, 0.0000000000000000000, 0.0000000000000000000 ) ) ;
#16 = DIRECTION ( 'NONE',  ( -0.0000000000000000000, -0.0000000000000000000, -1.000000000000000000 ) ) ;
#17 = CARTESIAN_POINT ( 'NONE',  ( 0.0000000000000000000, 0.0000000000000000000, 0.2500000000000000000 ) ) ;
#18 = DIRECTION ( 'NONE',  ( 1.000000000000000000, 0.0000000000000000000, 0.0000000000000000000 ) ) ;
#19 = DIRECTION ( 'NONE',  ( 0.0000000000000000000, 0.0000000000000000000, 1.000000000000000000 ) ) ;
#20 = CARTESIAN_POINT ( 'NONE',  ( 0.0000000000000000000, 0.0000000000000000000, 0.2500000000000000000 ) ) ;
#21 = DIRECTION ( 'NONE',  ( 1.000000000000000000, 0.0000000000000000000, 0.0000000000000000000 ) ) ;
#22 = DIRECTION ( 'NONE',  ( 0.0000000000000000000, 0.0000000000000000000, 1.000000000000000000 ) ) ;
#23 = CARTESIAN_POINT ( 'NONE',  ( 0.0000000000000000000, 0.0000000000000000000, 0.0000000000000000000 ) ) ;
#24 = DIRECTION ( 'NONE',  ( 1.000000000000000000, 0.0000000000000000000, 0.0000000000000000000 ) ) ;
#25 = DIRECTION ( 'NONE',  ( 0.0000000000000000000, 0.0000000000000000000, 1.000000000000000000 ) ) ;
#26 = CARTESIAN_POINT ( 'NONE',  ( 0.0000000000000000000, 0.0000000000000000000, 0.0000000000000000000 ) ) ;
#27 = DIRECTION ( 'NONE',  ( 1.000000000000000000, 0.0000000000000000000, 0.0000000000000000000 ) ) ;
#28 = DIRECTION ( 'NONE',  ( 0.0000000000000000000, 0.0000000000000000000, 1.000000000000000000 ) ) ;
#29 = DIRECTION ( 'NONE',  ( -0.0000000000000000000, -0.0000000000000000000, -1.000000000000000000 ) ) ;
#30 = CARTESIAN_POINT ( 'NONE',  ( 0.5000000000000000000, 6.123233995736766000E-017, 0.2500000000000000000 ) ) ;
#31 = LINE ( 'NONE', #30, #172 ) ;
#32 = DIRECTION ( 'NONE',  ( -0.0000000000000000000, -0.0000000000000000000, -1.000000000000000000 ) ) ;
#33 = CARTESIAN_POINT ( 'NONE',  ( 1.375000000000000000, 1.683889348827610500E-016, 0.2500000000000000000 ) ) ;
#34 = LINE ( 'NONE', #33, #170 ) ;
#35 = CARTESIAN_POINT ( 'NONE',  ( 0.0000000000000000000, 0.0000000000000000000, 0.2500000000000000000 ) ) ;
#36 = DIRECTION ( 'NONE',  ( 1.000000000000000000, 0.0000000000000000000, 0.0000000000000000000 ) ) ;
#37 = DIRECTION ( 'NONE',  ( 0.0000000000000000000, 0.0000000000000000000, 1.000000000000000000 ) ) ;
#38 = CARTESIAN_POINT ( 'NONE',  ( 0.0000000000000000000, 0.0000000000000000000, 0.2500000000000000000 ) ) ;
#39 = DIRECTION ( 'NONE',  ( 1.000000000000000000, 0.0000000000000000000, 0.0000000000000000000 ) ) ;
#40 = DIRECTION ( 'NONE',  ( 0.0000000000000000000, 0.0000000000000000000, 1.000000000000000000 ) ) ;
#41 = CARTESIAN_POINT ( 'NONE',  ( 0.0000000000000000000, 0.0000000000000000000, 0.2500000000000000000 ) ) ;
#42 = DIRECTION ( 'NONE',  ( 1.000000000000000000, 0.0000000000000000000, 0.0000000000000000000 ) ) ;
#43 = DIRECTION ( 'NONE',  ( 0.0000000000000000000, 0.0000000000000000000, 1.000000000000000000 ) ) ;
#44 = DIRECTION ( 'NONE',  ( -0.0000000000000000000, -0.0000000000000000000, -1.000000000000000000 ) ) ;
#45 = CARTESIAN_POINT ( 'NONE',  ( -1.375000000000000000, 0.0000000000000000000, 0.2500000000000000000 ) ) ;
#46 = LINE ( 'NONE', #45, #166 ) ;
#47 = CARTESIAN_POINT ( 'NONE',  ( 0.0000000000000000000, 0.0000000000000000000, 0.0000000000000000000 ) ) ;
#48 = DIRECTION ( 'NONE',  ( 1.000000000000000000, 0.0000000000000000000, 0.0000000000000000000 ) ) ;
#49 = DIRECTION ( 'NONE',  ( 0.0000000000000000000, 0.0000000000000000000, 1.000000000000000000 ) ) ;
#50 = CARTESIAN_POINT ( 'NONE',  ( 0.0000000000000000000, 0.0000000000000000000, 0.0000000000000000000 ) ) ;
#51 = DIRECTION ( 'NONE',  ( -0.0000000000000000000, -0.0000000000000000000, -1.000000000000000000 ) ) ;
#52 = CARTESIAN_POINT ( 'NONE',  ( -0.5000000000000000000, 0.0000000000000000000, 0.2500000000000000000 ) ) ;
#53 = LINE ( 'NONE', #52, #134 ) ;
#54 = EDGE_LOOP ( 'NONE', ( #98, #93 ) ) ;
#55 = EDGE_LOOP ( 'NONE', ( #86, #90, #91, #89 ) ) ;
#56 =( NAMED_UNIT ( * ) SI_UNIT ( $, .STERADIAN. ) SOLID_ANGLE_UNIT ( ) );
#57 = EDGE_LOOP ( 'NONE', ( #94, #95, #96, #92 ) ) ;
#58 =( NAMED_UNIT ( * ) PLANE_ANGLE_UNIT ( ) SI_UNIT ( $, .RADIAN. ) );
#59 =( CONVERSION_BASED_UNIT ( 'INCH', #128 ) LENGTH_UNIT ( ) NAMED_UNIT ( #114 ) );
#60 =( LENGTH_UNIT ( ) NAMED_UNIT ( * ) SI_UNIT ( $, .METRE. ) );
#61 = PRESENTATION_STYLE_ASSIGNMENT (( #62 ) ) ;
#62 = SURFACE_STYLE_USAGE ( .BOTH. , #63 ) ;
#63 = SURFACE_SIDE_STYLE ('',( #64 ) ) ;
#64 = SURFACE_STYLE_FILL_AREA ( #65 ) ;
#65 = FILL_AREA_STYLE ('',( #66 ) ) ;
#66 = FILL_AREA_STYLE_COLOUR ( '', #222 ) ;
#67 = CARTESIAN_POINT ( 'NONE',  ( -0.5000000000000000000, 0.0000000000000000000, 0.0000000000000000000 ) ) ;
#68 = CARTESIAN_POINT ( 'NONE',  ( 0.5000000000000000000, 6.123233995736766000E-017, 0.2500000000000000000 ) ) ;
#69 = CARTESIAN_POINT ( 'NONE',  ( 0.5000000000000000000, 6.123233995736766000E-017, 0.0000000000000000000 ) ) ;
#70 = CARTESIAN_POINT ( 'NONE',  ( -0.5000000000000000000, 0.0000000000000000000, 0.2500000000000000000 ) ) ;
#71 = CARTESIAN_POINT ( 'NONE',  ( -1.375000000000000000, 0.0000000000000000000, 0.0000000000000000000 ) ) ;
#72 = CARTESIAN_POINT ( 'NONE',  ( 1.375000000000000000, 1.683889348827610500E-016, 0.0000000000000000000 ) ) ;
#73 = CARTESIAN_POINT ( 'NONE',  ( -1.375000000000000000, 0.0000000000000000000, 0.2500000000000000000 ) ) ;
#74 = CARTESIAN_POINT ( 'NONE',  ( 1.375000000000000000, 1.683889348827610500E-016, 0.2500000000000000000 ) ) ;
#75 = VERTEX_POINT ( 'NONE', #74 ) ;
#76 = VERTEX_POINT ( 'NONE', #73 ) ;
#77 = VERTEX_POINT ( 'NONE', #72 ) ;
#78 = VERTEX_POINT ( 'NONE', #71 ) ;
#79 = VERTEX_POINT ( 'NONE', #70 ) ;
#80 = VERTEX_POINT ( 'NONE', #69 ) ;
#81 = VERTEX_POINT ( 'NONE', #68 ) ;
#82 = VERTEX_POINT ( 'NONE', #67 ) ;
#83 = ORIENTED_EDGE ( 'NONE', *, *, #205, .F. ) ;
#84 = ORIENTED_EDGE ( 'NONE', *, *, #211, .F. ) ;
#85 = ORIENTED_EDGE ( 'NONE', *, *, #201, .T. ) ;
#86 = ORIENTED_EDGE ( 'NONE', *, *, #206, .F. ) ;
#87 = ORIENTED_EDGE ( 'NONE', *, *, #198, .F. ) ;
#88 = ORIENTED_EDGE ( 'NONE', *, *, #209, .T. ) ;
#89 = ORIENTED_EDGE ( 'NONE', *, *, #210, .T. ) ;
#90 = ORIENTED_EDGE ( 'NONE', *, *, #208, .F. ) ;
#91 = ORIENTED_EDGE ( 'NONE', *, *, #200, .T. ) ;
#92 = ORIENTED_EDGE ( 'NONE', *, *, #209, .F. ) ;
#93 = ORIENTED_EDGE ( 'NONE', *, *, #202, .T. ) ;
#94 = ORIENTED_EDGE ( 'NONE', *, *, #207, .F. ) ;
#95 = ORIENTED_EDGE ( 'NONE', *, *, #211, .T. ) ;
#96 = ORIENTED_EDGE ( 'NONE', *, *, #123, .T. ) ;
#97 = ORIENTED_EDGE ( 'NONE', *, *, #210, .F. ) ;
#98 = ORIENTED_EDGE ( 'NONE', *, *, #208, .T. ) ;
#99 = ORIENTED_EDGE ( 'NONE', *, *, #206, .T. ) ;
#100 = ORIENTED_EDGE ( 'NONE', *, *, #198, .T. ) ;
#101 = ORIENTED_EDGE ( 'NONE', *, *, #202, .F. ) ;
#102 = ORIENTED_EDGE ( 'NONE', *, *, #205, .T. ) ;
#103 = ORIENTED_EDGE ( 'NONE', *, *, #123, .F. ) ;
#104 = ORIENTED_EDGE ( 'NONE', *, *, #201, .F. ) ;
#105 = ORIENTED_EDGE ( 'NONE', *, *, #200, .F. ) ;
#106 = ORIENTED_EDGE ( 'NONE', *, *, #207, .T. ) ;
#107 = EDGE_LOOP ( 'NONE', ( #102, #106, #104, #103 ) ) ;
#108 = EDGE_LOOP ( 'NONE', ( #101, #99, #100, #105 ) ) ;
#109 = EDGE_LOOP ( 'NONE', ( #83, #84 ) ) ;
#110 = EDGE_LOOP ( 'NONE', ( #97, #87 ) ) ;
#111 = EDGE_LOOP ( 'NONE', ( #85, #88 ) ) ;
#112 = DIMENSIONAL_EXPONENTS ( 1.000000000000000000, 0.0000000000000000000, 0.0000000000000000000, 0.0000000000000000000, 0.0000000000000000000, 0.0000000000000000000, 0.0000000000000000000 ) ;
#113 = DIMENSIONAL_EXPONENTS ( 1.000000000000000000, 0.0000000000000000000, 0.0000000000000000000, 0.0000000000000000000, 0.0000000000000000000, 0.0000000000000000000, 0.0000000000000000000 ) ;
#114 = DIMENSIONAL_EXPONENTS ( 1.000000000000000000, 0.0000000000000000000, 0.0000000000000000000, 0.0000000000000000000, 0.0000000000000000000, 0.0000000000000000000, 0.0000000000000000000 ) ;
#115 = PRODUCT ( 'H250-2750-1000', 'H250-2750-1000', '', ( #139 ) ) ;
#116 = PRODUCT_DEFINITION_SHAPE ( 'NONE', 'NONE',  #163 ) ;
#117 = PRODUCT_DEFINITION_CONTEXT ( 'detailed design', #204, 'design' ) ;
#118 = MANIFOLD_SOLID_BREP ( 'Boss-Extrude1', #135 ) ;
#119 = ADVANCED_BREP_SHAPE_REPRESENTATION ( 'H250-2750-1000', ( #118, #196 ), #125 ) ;
#120 = UNCERTAINTY_MEASURE_WITH_UNIT (LENGTH_MEASURE( 1.000000000000000100E-005 ), #59, 'distance_accuracy_value', 'NONE');
#121 = UNCERTAINTY_MEASURE_WITH_UNIT (LENGTH_MEASURE( 1.000000000000000100E-005 ), #156, 'distance_accuracy_value', 'NONE');
#122 = UNCERTAINTY_MEASURE_WITH_UNIT (LENGTH_MEASURE( 1.000000000000000100E-005 ), #138, 'distance_accuracy_value', 'NONE');
#123 = EDGE_CURVE ( 'NONE', #79, #82, #53, .T. ) ;
#124 =( GEOMETRIC_REPRESENTATION_CONTEXT ( 3 ) GLOBAL_UNCERTAINTY_ASSIGNED_CONTEXT ( ( #122 ) ) GLOBAL_UNIT_ASSIGNED_CONTEXT ( ( #138, #137, #136 ) ) REPRESENTATION_CONTEXT ( 'NONE', 'WORKASPACE' ) );
#125 =( GEOMETRIC_REPRESENTATION_CONTEXT ( 3 ) GLOBAL_UNCERTAINTY_ASSIGNED_CONTEXT ( ( #121 ) ) GLOBAL_UNIT_ASSIGNED_CONTEXT ( ( #156, #153, #155 ) ) REPRESENTATION_CONTEXT ( 'NONE', 'WORKASPACE' ) );
#126 =( GEOMETRIC_REPRESENTATION_CONTEXT ( 3 ) GLOBAL_UNCERTAINTY_ASSIGNED_CONTEXT ( ( #120 ) ) GLOBAL_UNIT_ASSIGNED_CONTEXT ( ( #59, #58, #56 ) ) REPRESENTATION_CONTEXT ( 'NONE', 'WORKASPACE' ) );
#127 = MECHANICAL_DESIGN_GEOMETRIC_PRESENTATION_REPRESENTATION (  '', ( #130 ), #126 ) ;
#128 = LENGTH_MEASURE_WITH_UNIT ( LENGTH_MEASURE( 0.02539999999999999900 ), #60 );
#129 = PRESENTATION_LAYER_ASSIGNMENT (  '', '', ( #130 ) ) ;
#130 = STYLED_ITEM ( 'NONE', ( #61 ), #118 ) ;
#131 = AXIS2_PLACEMENT_3D ( 'NONE', #26, #25, #24 ) ;
#132 = AXIS2_PLACEMENT_3D ( 'NONE', #50, #49, #48 ) ;
#133 = AXIS2_PLACEMENT_3D ( 'NONE', #23, #22, #21 ) ;
#134 = VECTOR ( 'NONE', #51, 39.37007874015748100 ) ;
#135 = CLOSED_SHELL ( 'NONE', ( #217, #216, #215, #214, #213, #212 ) ) ;
#136 =( NAMED_UNIT ( * ) SI_UNIT ( $, .STERADIAN. ) SOLID_ANGLE_UNIT ( ) );
#137 =( NAMED_UNIT ( * ) PLANE_ANGLE_UNIT ( ) SI_UNIT ( $, .RADIAN. ) );
#138 =( CONVERSION_BASED_UNIT ( 'INCH', #195 ) LENGTH_UNIT ( ) NAMED_UNIT ( #113 ) );
#139 = PRODUCT_CONTEXT ( 'NONE', #203, 'mechanical' ) ;
#140 =( LENGTH_UNIT ( ) NAMED_UNIT ( * ) SI_UNIT ( $, .METRE. ) );
#141 = PRESENTATION_STYLE_ASSIGNMENT (( #142 ) ) ;
#142 = SURFACE_STYLE_USAGE ( .BOTH. , #143 ) ;
#143 = SURFACE_SIDE_STYLE ('',( #144 ) ) ;
#144 = SURFACE_STYLE_FILL_AREA ( #145 ) ;
#145 = FILL_AREA_STYLE ('',( #146 ) ) ;
#146 = FILL_AREA_STYLE_COLOUR ( '', #162 ) ;
#147 = APPLICATION_PROTOCOL_DEFINITION ( 'draft international standard', 'automotive_design', 1998, #204 ) ;
#148 = DIRECTION ( 'NONE',  ( 1.000000000000000000, 0.0000000000000000000, 0.0000000000000000000 ) ) ;
#149 = SHAPE_DEFINITION_REPRESENTATION ( #116, #119 ) ;
#150 = APPLICATION_PROTOCOL_DEFINITION ( 'draft international standard', 'automotive_design', 1998, #203 ) ;
#151 = DIRECTION ( 'NONE',  ( 0.0000000000000000000, 0.0000000000000000000, 1.000000000000000000 ) ) ;
#152 = CARTESIAN_POINT ( 'NONE',  ( 0.0000000000000000000, 0.0000000000000000000, 0.0000000000000000000 ) ) ;
#153 =( NAMED_UNIT ( * ) PLANE_ANGLE_UNIT ( ) SI_UNIT ( $, .RADIAN. ) );
#154 = CARTESIAN_POINT ( 'NONE',  ( 0.0000000000000000000, 0.0000000000000000000, 0.2500000000000000000 ) ) ;
#155 =( NAMED_UNIT ( * ) SI_UNIT ( $, .STERADIAN. ) SOLID_ANGLE_UNIT ( ) );
#156 =( CONVERSION_BASED_UNIT ( 'INCH', #191 ) LENGTH_UNIT ( ) NAMED_UNIT ( #112 ) );
#157 =( LENGTH_UNIT ( ) NAMED_UNIT ( * ) SI_UNIT ( $, .METRE. ) );
#158 = DIRECTION ( 'NONE',  ( -1.000000000000000000, 0.0000000000000000000, 0.0000000000000000000 ) ) ;
#159 = DIRECTION ( 'NONE',  ( -0.0000000000000000000, -0.0000000000000000000, -1.000000000000000000 ) ) ;
#160 = CIRCLE ( 'NONE', #133, 1.375000000000000000 ) ;
#161 = CIRCLE ( 'NONE', #171, 0.5000000000000000000 ) ;
#162 = COLOUR_RGB ( '',0.5686274509803921400, 0.5686274509803921400, 0.5882352941176470800 ) ;
#163 = PRODUCT_DEFINITION ( 'UNKNOWN', '', #197, #117 ) ;
#164 = PRODUCT_RELATED_PRODUCT_CATEGORY ( 'part', '', ( #115 ) ) ;
#165 = AXIS2_PLACEMENT_3D ( 'NONE', #47, #43, #42 ) ;
#166 = VECTOR ( 'NONE', #44, 39.37007874015748100 ) ;
#167 = AXIS2_PLACEMENT_3D ( 'NONE', #41, #40, #39 ) ;
#168 = AXIS2_PLACEMENT_3D ( 'NONE', #38, #37, #36 ) ;
#169 = AXIS2_PLACEMENT_3D ( 'NONE', #35, #28, #27 ) ;
#170 = VECTOR ( 'NONE', #32, 39.37007874015748100 ) ;
#171 = AXIS2_PLACEMENT_3D ( 'NONE', #20, #19, #18 ) ;
#172 = VECTOR ( 'NONE', #29, 39.37007874015748100 ) ;
#173 = AXIS2_PLACEMENT_3D ( 'NONE', #3, #2, #1 ) ;
#174 = FACE_OUTER_BOUND ( 'NONE', #57, .T. ) ;
#175 = AXIS2_PLACEMENT_3D ( 'NONE', #17, #16, #15 ) ;
#176 = FACE_OUTER_BOUND ( 'NONE', #55, .T. ) ;
#177 = CYLINDRICAL_SURFACE ( 'NONE', #175, 0.5000000000000000000 ) ;
#178 = FACE_OUTER_BOUND ( 'NONE', #110, .T. ) ;
#179 = AXIS2_PLACEMENT_3D ( 'NONE', #14, #13, #12 ) ;
#180 = CYLINDRICAL_SURFACE ( 'NONE', #179, 1.375000000000000000 ) ;
#181 = FACE_BOUND ( 'NONE', #109, .T. ) ;
#182 = FACE_BOUND ( 'NONE', #111, .T. ) ;
#183 = FACE_OUTER_BOUND ( 'NONE', #54, .T. ) ;
#184 = FACE_OUTER_BOUND ( 'NONE', #107, .T. ) ;
#185 = AXIS2_PLACEMENT_3D ( 'NONE', #10, #9, #8 ) ;
#186 = FACE_OUTER_BOUND ( 'NONE', #108, .T. ) ;
#187 = AXIS2_PLACEMENT_3D ( 'NONE', #6, #5, #4 ) ;
#188 = CYLINDRICAL_SURFACE ( 'NONE', #173, 1.375000000000000000 ) ;
#189 = AXIS2_PLACEMENT_3D ( 'NONE', #154, #159, #158 ) ;
#190 = CYLINDRICAL_SURFACE ( 'NONE', #189, 0.5000000000000000000 ) ;
#191 = LENGTH_MEASURE_WITH_UNIT ( LENGTH_MEASURE( 0.02539999999999999900 ), #157 );
#192 = STYLED_ITEM ( 'NONE', ( #141 ), #119 ) ;
#193 = PRESENTATION_LAYER_ASSIGNMENT (  '', '', ( #192 ) ) ;
#194 = MECHANICAL_DESIGN_GEOMETRIC_PRESENTATION_REPRESENTATION (  '', ( #192 ), #124 ) ;
#195 = LENGTH_MEASURE_WITH_UNIT ( LENGTH_MEASURE( 0.02539999999999999900 ), #140 );
#196 = AXIS2_PLACEMENT_3D ( 'NONE', #152, #151, #148 ) ;
#197 = PRODUCT_DEFINITION_FORMATION_WITH_SPECIFIED_SOURCE ( 'ANY', '', #115, .NOT_KNOWN. ) ;
#198 = EDGE_CURVE ( 'NONE', #77, #78, #220, .T. ) ;
#199 = CIRCLE ( 'NONE', #131, 0.5000000000000000000 ) ;
#200 = EDGE_CURVE ( 'NONE', #76, #78, #46, .T. ) ;
#201 = EDGE_CURVE ( 'NONE', #82, #80, #219, .T. ) ;
#202 = EDGE_CURVE ( 'NONE', #75, #76, #218, .T. ) ;
#203 = APPLICATION_CONTEXT ( 'automotive_design' ) ;
#204 = APPLICATION_CONTEXT ( 'automotive_design' ) ;
#205 = EDGE_CURVE ( 'NONE', #79, #81, #221, .T. ) ;
#206 = EDGE_CURVE ( 'NONE', #75, #77, #34, .T. ) ;
#207 = EDGE_CURVE ( 'NONE', #81, #80, #31, .T. ) ;
#208 = EDGE_CURVE ( 'NONE', #76, #75, #223, .T. ) ;
#209 = EDGE_CURVE ( 'NONE', #80, #82, #199, .T. ) ;
#210 = EDGE_CURVE ( 'NONE', #78, #77, #160, .T. ) ;
#211 = EDGE_CURVE ( 'NONE', #81, #79, #161, .T. ) ;
#212 = ADVANCED_FACE ( 'NONE', ( #174 ), #177, .F. ) ;
#213 = ADVANCED_FACE ( 'NONE', ( #176 ), #180, .T. ) ;
#214 = ADVANCED_FACE ( 'NONE', ( #178, #182 ), #11, .F. ) ;
#215 = ADVANCED_FACE ( 'NONE', ( #183, #181 ), #7, .T. ) ;
#216 = ADVANCED_FACE ( 'NONE', ( #186 ), #188, .T. ) ;
#217 = ADVANCED_FACE ( 'NONE', ( #184 ), #190, .F. ) ;
#218 = CIRCLE ( 'NONE', #167, 1.375000000000000000 ) ;
#219 = CIRCLE ( 'NONE', #165, 0.5000000000000000000 ) ;
#220 = CIRCLE ( 'NONE', #132, 1.375000000000000000 ) ;
#221 = CIRCLE ( 'NONE', #168, 0.5000000000000000000 ) ;
#222 = COLOUR_RGB ( '',0.5686274509803921400, 0.5686274509803921400, 0.5882352941176470800 ) ;
#223 = CIRCLE ( 'NONE', #169, 1.375000000000000000 ) ;
ENDSEC;
END-ISO-10303-21;
