ISO-10303-21;
HEADER;
FILE_DESCRIPTION (( 'STEP AP214' ),
    '1' );
FILE_NAME ('H250F-DM.step',
    '2012-04-20T20:59:09',
    ( '' ),
    ( '' ),
    'SwSTEP 2.0',
    'SolidWorks 2012',
    '' );
FILE_SCHEMA (( 'AUTOMOTIVE_DESIGN' ));
ENDSEC;

DATA;
#1 = DIRECTION ( 'NONE',  ( -0.0000000000000000000, -0.0000000000000000000, -1.000000000000000000 ) ) ;
#2 = CARTESIAN_POINT ( 'NONE',  ( 0.0000000000000000000, 0.0000000000000000000, 0.2500000000000000000 ) ) ;
#3 = DIRECTION ( 'NONE',  ( -1.000000000000000000, 0.0000000000000000000, 0.0000000000000000000 ) ) ;
#4 = DIRECTION ( 'NONE',  ( -0.0000000000000000000, -0.0000000000000000000, -1.000000000000000000 ) ) ;
#5 = DIRECTION ( 'NONE',  ( -0.0000000000000000000, -0.0000000000000000000, -1.000000000000000000 ) ) ;
#6 = CARTESIAN_POINT ( 'NONE',  ( -0.1300000000000000000, 0.0000000000000000000, 0.2500000000000000000 ) ) ;
#7 = LINE ( 'NONE', #6, #185 ) ;
#8 = CARTESIAN_POINT ( 'NONE',  ( 0.0000000000000000000, 0.0000000000000000000, 0.2500000000000000000 ) ) ;
#9 = DIRECTION ( 'NONE',  ( 1.000000000000000000, 0.0000000000000000000, 0.0000000000000000000 ) ) ;
#10 = DIRECTION ( 'NONE',  ( 0.0000000000000000000, 0.0000000000000000000, 1.000000000000000000 ) ) ;
#11 = CARTESIAN_POINT ( 'NONE',  ( 0.0000000000000000000, 0.0000000000000000000, 0.0000000000000000000 ) ) ;
#12 = DIRECTION ( 'NONE',  ( 1.000000000000000000, 0.0000000000000000000, 0.0000000000000000000 ) ) ;
#13 = DIRECTION ( 'NONE',  ( 0.0000000000000000000, 0.0000000000000000000, 1.000000000000000000 ) ) ;
#14 = DIRECTION ( 'NONE',  ( -0.0000000000000000000, -0.0000000000000000000, -1.000000000000000000 ) ) ;
#15 = CARTESIAN_POINT ( 'NONE',  ( 0.1300000000000000000, 1.592040838891559300E-017, 0.2500000000000000000 ) ) ;
#16 = LINE ( 'NONE', #15, #182 ) ;
#17 = CARTESIAN_POINT ( 'NONE',  ( 0.0000000000000000000, 0.0000000000000000000, 0.0000000000000000000 ) ) ;
#18 = DIRECTION ( 'NONE',  ( 1.000000000000000000, 0.0000000000000000000, 0.0000000000000000000 ) ) ;
#19 = DIRECTION ( 'NONE',  ( 0.0000000000000000000, 0.0000000000000000000, 1.000000000000000000 ) ) ;
#20 = DIRECTION ( 'NONE',  ( -0.0000000000000000000, -0.0000000000000000000, -1.000000000000000000 ) ) ;
#21 = CARTESIAN_POINT ( 'NONE',  ( 0.3749999999999999400, 4.592425496802573600E-017, 0.2500000000000000000 ) ) ;
#22 = LINE ( 'NONE', #21, #179 ) ;
#23 = CARTESIAN_POINT ( 'NONE',  ( 0.0000000000000000000, 0.0000000000000000000, 0.2500000000000000000 ) ) ;
#24 = DIRECTION ( 'NONE',  ( 1.000000000000000000, 0.0000000000000000000, 0.0000000000000000000 ) ) ;
#25 = DIRECTION ( 'NONE',  ( 0.0000000000000000000, 0.0000000000000000000, 1.000000000000000000 ) ) ;
#26 = CARTESIAN_POINT ( 'NONE',  ( 0.0000000000000000000, 0.0000000000000000000, 0.2500000000000000000 ) ) ;
#27 = DIRECTION ( 'NONE',  ( 1.000000000000000000, 0.0000000000000000000, 0.0000000000000000000 ) ) ;
#28 = DIRECTION ( 'NONE',  ( 0.0000000000000000000, 0.0000000000000000000, 1.000000000000000000 ) ) ;
#29 = CARTESIAN_POINT ( 'NONE',  ( 0.0000000000000000000, 0.0000000000000000000, 0.0000000000000000000 ) ) ;
#30 = DIRECTION ( 'NONE',  ( 1.000000000000000000, 0.0000000000000000000, -0.0000000000000000000 ) ) ;
#31 = EDGE_LOOP ( 'NONE', ( #93, #82, #91, #89 ) ) ;
#32 = EDGE_LOOP ( 'NONE', ( #97, #95 ) ) ;
#33 = EDGE_LOOP ( 'NONE', ( #92, #102, #94, #90 ) ) ;
#34 = PLANE ( 'NONE',  #176 ) ;
#35 = CARTESIAN_POINT ( 'NONE',  ( 0.0000000000000000000, 0.0000000000000000000, 0.2500000000000000000 ) ) ;
#36 = DIRECTION ( 'NONE',  ( 0.0000000000000000000, 0.0000000000000000000, 1.000000000000000000 ) ) ;
#37 = CARTESIAN_POINT ( 'NONE',  ( 0.0000000000000000000, 0.0000000000000000000, 0.2500000000000000000 ) ) ;
#38 = DIRECTION ( 'NONE',  ( -0.0000000000000000000, -0.0000000000000000000, -1.000000000000000000 ) ) ;
#39 = DIRECTION ( 'NONE',  ( -1.000000000000000000, 0.0000000000000000000, 0.0000000000000000000 ) ) ;
#40 = CARTESIAN_POINT ( 'NONE',  ( 0.0000000000000000000, 0.0000000000000000000, 0.2500000000000000000 ) ) ;
#41 = DIRECTION ( 'NONE',  ( -1.000000000000000000, 0.0000000000000000000, 0.0000000000000000000 ) ) ;
#42 = DIRECTION ( 'NONE',  ( -0.0000000000000000000, -0.0000000000000000000, -1.000000000000000000 ) ) ;
#43 = DIRECTION ( 'NONE',  ( -0.0000000000000000000, -0.0000000000000000000, -1.000000000000000000 ) ) ;
#44 = DIRECTION ( 'NONE',  ( 0.0000000000000000000, 0.0000000000000000000, 1.000000000000000000 ) ) ;
#45 = DIRECTION ( 'NONE',  ( 1.000000000000000000, 0.0000000000000000000, 0.0000000000000000000 ) ) ;
#46 = CARTESIAN_POINT ( 'NONE',  ( -0.3749999999999999400, 0.0000000000000000000, 0.2500000000000000000 ) ) ;
#47 = LINE ( 'NONE', #46, #129 ) ;
#48 = CARTESIAN_POINT ( 'NONE',  ( 0.0000000000000000000, 0.0000000000000000000, 0.2500000000000000000 ) ) ;
#49 = DIRECTION ( 'NONE',  ( 1.000000000000000000, 0.0000000000000000000, 0.0000000000000000000 ) ) ;
#50 = DIRECTION ( 'NONE',  ( 0.0000000000000000000, 0.0000000000000000000, 1.000000000000000000 ) ) ;
#51 = CARTESIAN_POINT ( 'NONE',  ( 0.0000000000000000000, 0.0000000000000000000, 0.2500000000000000000 ) ) ;
#52 = DIRECTION ( 'NONE',  ( 1.000000000000000000, 0.0000000000000000000, 0.0000000000000000000 ) ) ;
#53 = DIRECTION ( 'NONE',  ( 0.0000000000000000000, 0.0000000000000000000, 1.000000000000000000 ) ) ;
#54 = CARTESIAN_POINT ( 'NONE',  ( 0.0000000000000000000, 0.0000000000000000000, 0.0000000000000000000 ) ) ;
#55 =( NAMED_UNIT ( * ) SI_UNIT ( $, .STERADIAN. ) SOLID_ANGLE_UNIT ( ) );
#56 =( NAMED_UNIT ( * ) PLANE_ANGLE_UNIT ( ) SI_UNIT ( $, .RADIAN. ) );
#57 =( CONVERSION_BASED_UNIT ( 'INCH', #123 ) LENGTH_UNIT ( ) NAMED_UNIT ( #113 ) );
#58 =( LENGTH_UNIT ( ) NAMED_UNIT ( * ) SI_UNIT ( $, .METRE. ) );
#59 = PRESENTATION_STYLE_ASSIGNMENT (( #60 ) ) ;
#60 = SURFACE_STYLE_USAGE ( .BOTH. , #61 ) ;
#61 = SURFACE_SIDE_STYLE ('',( #62 ) ) ;
#62 = SURFACE_STYLE_FILL_AREA ( #63 ) ;
#63 = FILL_AREA_STYLE ('',( #64 ) ) ;
#64 = FILL_AREA_STYLE_COLOUR ( '', #213 ) ;
#65 = CARTESIAN_POINT ( 'NONE',  ( -0.1300000000000000000, 0.0000000000000000000, 0.0000000000000000000 ) ) ;
#66 = CARTESIAN_POINT ( 'NONE',  ( -0.3749999999999999400, 0.0000000000000000000, 0.0000000000000000000 ) ) ;
#67 = CARTESIAN_POINT ( 'NONE',  ( 0.3749999999999999400, 4.592425496802573600E-017, 0.0000000000000000000 ) ) ;
#68 = CARTESIAN_POINT ( 'NONE',  ( -0.3749999999999999400, 0.0000000000000000000, 0.2500000000000000000 ) ) ;
#69 = CARTESIAN_POINT ( 'NONE',  ( 0.3749999999999999400, 4.592425496802573600E-017, 0.2500000000000000000 ) ) ;
#70 = CARTESIAN_POINT ( 'NONE',  ( 0.1300000000000000000, 1.592040838891559300E-017, 0.0000000000000000000 ) ) ;
#71 = CARTESIAN_POINT ( 'NONE',  ( 0.1300000000000000000, 1.592040838891559300E-017, 0.2500000000000000000 ) ) ;
#72 = CARTESIAN_POINT ( 'NONE',  ( -0.1300000000000000000, 0.0000000000000000000, 0.2500000000000000000 ) ) ;
#73 = VERTEX_POINT ( 'NONE', #72 ) ;
#74 = VERTEX_POINT ( 'NONE', #71 ) ;
#75 = VERTEX_POINT ( 'NONE', #70 ) ;
#76 = VERTEX_POINT ( 'NONE', #69 ) ;
#77 = VERTEX_POINT ( 'NONE', #68 ) ;
#78 = VERTEX_POINT ( 'NONE', #67 ) ;
#79 = VERTEX_POINT ( 'NONE', #66 ) ;
#80 = VERTEX_POINT ( 'NONE', #65 ) ;
#81 = ORIENTED_EDGE ( 'NONE', *, *, #162, .T. ) ;
#82 = ORIENTED_EDGE ( 'NONE', *, *, #201, .F. ) ;
#83 = ORIENTED_EDGE ( 'NONE', *, *, #203, .F. ) ;
#84 = ORIENTED_EDGE ( 'NONE', *, *, #162, .F. ) ;
#85 = ORIENTED_EDGE ( 'NONE', *, *, #206, .T. ) ;
#86 = ORIENTED_EDGE ( 'NONE', *, *, #205, .F. ) ;
#87 = ORIENTED_EDGE ( 'NONE', *, *, #164, .F. ) ;
#88 = ORIENTED_EDGE ( 'NONE', *, *, #202, .T. ) ;
#89 = ORIENTED_EDGE ( 'NONE', *, *, #205, .T. ) ;
#90 = ORIENTED_EDGE ( 'NONE', *, *, #206, .F. ) ;
#91 = ORIENTED_EDGE ( 'NONE', *, *, #164, .T. ) ;
#92 = ORIENTED_EDGE ( 'NONE', *, *, #204, .F. ) ;
#93 = ORIENTED_EDGE ( 'NONE', *, *, #202, .F. ) ;
#94 = ORIENTED_EDGE ( 'NONE', *, *, #207, .T. ) ;
#95 = ORIENTED_EDGE ( 'NONE', *, *, #163, .T. ) ;
#96 = ORIENTED_EDGE ( 'NONE', *, *, #165, .F. ) ;
#97 = ORIENTED_EDGE ( 'NONE', *, *, #201, .T. ) ;
#98 = ORIENTED_EDGE ( 'NONE', *, *, #199, .T. ) ;
#99 = ORIENTED_EDGE ( 'NONE', *, *, #203, .T. ) ;
#100 = ORIENTED_EDGE ( 'NONE', *, *, #163, .F. ) ;
#101 = ORIENTED_EDGE ( 'NONE', *, *, #199, .F. ) ;
#102 = ORIENTED_EDGE ( 'NONE', *, *, #165, .T. ) ;
#103 = ORIENTED_EDGE ( 'NONE', *, *, #204, .T. ) ;
#104 = ORIENTED_EDGE ( 'NONE', *, *, #207, .F. ) ;
#105 = EDGE_LOOP ( 'NONE', ( #99, #103, #101, #104 ) ) ;
#106 = EDGE_LOOP ( 'NONE', ( #100, #88, #81, #87 ) ) ;
#107 = EDGE_LOOP ( 'NONE', ( #83, #96 ) ) ;
#108 = EDGE_LOOP ( 'NONE', ( #86, #84 ) ) ;
#109 = EDGE_LOOP ( 'NONE', ( #98, #85 ) ) ;
#110 =( GEOMETRIC_REPRESENTATION_CONTEXT ( 3 ) GLOBAL_UNCERTAINTY_ASSIGNED_CONTEXT ( ( #122 ) ) GLOBAL_UNIT_ASSIGNED_CONTEXT ( ( #139, #138, #137 ) ) REPRESENTATION_CONTEXT ( 'NONE', 'WORKASPACE' ) );
#111 =( GEOMETRIC_REPRESENTATION_CONTEXT ( 3 ) GLOBAL_UNCERTAINTY_ASSIGNED_CONTEXT ( ( #120 ) ) GLOBAL_UNIT_ASSIGNED_CONTEXT ( ( #158, #155, #150 ) ) REPRESENTATION_CONTEXT ( 'NONE', 'WORKASPACE' ) );
#112 = DIMENSIONAL_EXPONENTS ( 1.000000000000000000, 0.0000000000000000000, 0.0000000000000000000, 0.0000000000000000000, 0.0000000000000000000, 0.0000000000000000000, 0.0000000000000000000 ) ;
#113 = DIMENSIONAL_EXPONENTS ( 1.000000000000000000, 0.0000000000000000000, 0.0000000000000000000, 0.0000000000000000000, 0.0000000000000000000, 0.0000000000000000000, 0.0000000000000000000 ) ;
#114 = DIMENSIONAL_EXPONENTS ( 1.000000000000000000, 0.0000000000000000000, 0.0000000000000000000, 0.0000000000000000000, 0.0000000000000000000, 0.0000000000000000000, 0.0000000000000000000 ) ;
#115 = PRODUCT ( 'H250F-DM', 'H250F-DM', '', ( #152 ) ) ;
#116 = PRODUCT_DEFINITION_SHAPE ( 'NONE', 'NONE',  #210 ) ;
#117 = PRODUCT_DEFINITION_CONTEXT ( 'detailed design', #209, 'design' ) ;
#118 = MANIFOLD_SOLID_BREP ( 'Boss-Extrude1', #130 ) ;
#119 = ADVANCED_BREP_SHAPE_REPRESENTATION ( 'H250F-DM', ( #118, #197 ), #111 ) ;
#120 = UNCERTAINTY_MEASURE_WITH_UNIT (LENGTH_MEASURE( 1.000000000000000100E-005 ), #158, 'distance_accuracy_value', 'NONE');
#121 = UNCERTAINTY_MEASURE_WITH_UNIT (LENGTH_MEASURE( 1.000000000000000100E-005 ), #57, 'distance_accuracy_value', 'NONE');
#122 = UNCERTAINTY_MEASURE_WITH_UNIT (LENGTH_MEASURE( 1.000000000000000100E-005 ), #139, 'distance_accuracy_value', 'NONE');
#123 = LENGTH_MEASURE_WITH_UNIT ( LENGTH_MEASURE( 0.02539999999999999900 ), #58 );
#124 = MECHANICAL_DESIGN_GEOMETRIC_PRESENTATION_REPRESENTATION (  '', ( #126 ), #135 ) ;
#125 = FACE_OUTER_BOUND ( 'NONE', #33, .T. ) ;
#126 = STYLED_ITEM ( 'NONE', ( #59 ), #118 ) ;
#127 = AXIS2_PLACEMENT_3D ( 'NONE', #48, #44, #45 ) ;
#128 = AXIS2_PLACEMENT_3D ( 'NONE', #54, #53, #52 ) ;
#129 = VECTOR ( 'NONE', #43, 39.37007874015748100 ) ;
#130 = CLOSED_SHELL ( 'NONE', ( #218, #219, #168, #220, #167, #166 ) ) ;
#131 = CYLINDRICAL_SURFACE ( 'NONE', #133, 0.1300000000000000000 ) ;
#132 = AXIS2_PLACEMENT_3D ( 'NONE', #51, #50, #49 ) ;
#133 = AXIS2_PLACEMENT_3D ( 'NONE', #40, #42, #41 ) ;
#134 = PRESENTATION_LAYER_ASSIGNMENT (  '', '', ( #126 ) ) ;
#135 =( GEOMETRIC_REPRESENTATION_CONTEXT ( 3 ) GLOBAL_UNCERTAINTY_ASSIGNED_CONTEXT ( ( #121 ) ) GLOBAL_UNIT_ASSIGNED_CONTEXT ( ( #57, #56, #55 ) ) REPRESENTATION_CONTEXT ( 'NONE', 'WORKASPACE' ) );
#136 = SURFACE_SIDE_STYLE ('',( #140 ) ) ;
#137 =( NAMED_UNIT ( * ) SI_UNIT ( $, .STERADIAN. ) SOLID_ANGLE_UNIT ( ) );
#138 =( NAMED_UNIT ( * ) PLANE_ANGLE_UNIT ( ) SI_UNIT ( $, .RADIAN. ) );
#139 =( CONVERSION_BASED_UNIT ( 'INCH', #196 ) LENGTH_UNIT ( ) NAMED_UNIT ( #112 ) );
#140 = SURFACE_STYLE_FILL_AREA ( #145 ) ;
#141 = DIRECTION ( 'NONE',  ( 0.0000000000000000000, 0.0000000000000000000, 1.000000000000000000 ) ) ;
#142 =( LENGTH_UNIT ( ) NAMED_UNIT ( * ) SI_UNIT ( $, .METRE. ) );
#143 = PRESENTATION_STYLE_ASSIGNMENT (( #144 ) ) ;
#144 = SURFACE_STYLE_USAGE ( .BOTH. , #136 ) ;
#145 = FILL_AREA_STYLE ('',( #146 ) ) ;
#146 = FILL_AREA_STYLE_COLOUR ( '', #200 ) ;
#147 = APPLICATION_PROTOCOL_DEFINITION ( 'draft international standard', 'automotive_design', 1998, #209 ) ;
#148 = APPLICATION_PROTOCOL_DEFINITION ( 'draft international standard', 'automotive_design', 1998, #208 ) ;
#149 = CARTESIAN_POINT ( 'NONE',  ( 0.0000000000000000000, 0.0000000000000000000, 0.0000000000000000000 ) ) ;
#150 =( NAMED_UNIT ( * ) SI_UNIT ( $, .STERADIAN. ) SOLID_ANGLE_UNIT ( ) );
#151 = DIRECTION ( 'NONE',  ( 1.000000000000000000, 0.0000000000000000000, 0.0000000000000000000 ) ) ;
#152 = PRODUCT_CONTEXT ( 'NONE', #208, 'mechanical' ) ;
#153 = DIRECTION ( 'NONE',  ( 1.000000000000000000, 0.0000000000000000000, -0.0000000000000000000 ) ) ;
#154 =( LENGTH_UNIT ( ) NAMED_UNIT ( * ) SI_UNIT ( $, .METRE. ) );
#155 =( NAMED_UNIT ( * ) PLANE_ANGLE_UNIT ( ) SI_UNIT ( $, .RADIAN. ) );
#156 = DIRECTION ( 'NONE',  ( 0.0000000000000000000, 0.0000000000000000000, 1.000000000000000000 ) ) ;
#157 = CARTESIAN_POINT ( 'NONE',  ( 0.0000000000000000000, 0.0000000000000000000, 0.0000000000000000000 ) ) ;
#158 =( CONVERSION_BASED_UNIT ( 'INCH', #191 ) LENGTH_UNIT ( ) NAMED_UNIT ( #114 ) );
#159 = SHAPE_DEFINITION_REPRESENTATION ( #116, #119 ) ;
#160 = PLANE ( 'NONE',  #192 ) ;
#161 = DIRECTION ( 'NONE',  ( -1.000000000000000000, 0.0000000000000000000, 0.0000000000000000000 ) ) ;
#162 = EDGE_CURVE ( 'NONE', #78, #79, #223, .T. ) ;
#163 = EDGE_CURVE ( 'NONE', #76, #77, #222, .T. ) ;
#164 = EDGE_CURVE ( 'NONE', #77, #79, #47, .T. ) ;
#165 = EDGE_CURVE ( 'NONE', #74, #73, #221, .T. ) ;
#166 = ADVANCED_FACE ( 'NONE', ( #125 ), #131, .F. ) ;
#167 = ADVANCED_FACE ( 'NONE', ( #170 ), #173, .T. ) ;
#168 = ADVANCED_FACE ( 'NONE', ( #171, #174 ), #34, .T. ) ;
#169 = AXIS2_PLACEMENT_3D ( 'NONE', #23, #19, #18 ) ;
#170 = FACE_OUTER_BOUND ( 'NONE', #31, .T. ) ;
#171 = FACE_OUTER_BOUND ( 'NONE', #32, .T. ) ;
#172 = AXIS2_PLACEMENT_3D ( 'NONE', #37, #38, #39 ) ;
#173 = CYLINDRICAL_SURFACE ( 'NONE', #172, 0.3749999999999999400 ) ;
#174 = FACE_BOUND ( 'NONE', #107, .T. ) ;
#175 = AXIS2_PLACEMENT_3D ( 'NONE', #29, #28, #27 ) ;
#176 = AXIS2_PLACEMENT_3D ( 'NONE', #35, #36, #30 ) ;
#177 = AXIS2_PLACEMENT_3D ( 'NONE', #26, #25, #24 ) ;
#178 = AXIS2_PLACEMENT_3D ( 'NONE', #11, #10, #9 ) ;
#179 = VECTOR ( 'NONE', #20, 39.37007874015748100 ) ;
#180 = AXIS2_PLACEMENT_3D ( 'NONE', #17, #13, #12 ) ;
#181 = FACE_OUTER_BOUND ( 'NONE', #105, .T. ) ;
#182 = VECTOR ( 'NONE', #14, 39.37007874015748100 ) ;
#183 = AXIS2_PLACEMENT_3D ( 'NONE', #8, #4, #3 ) ;
#184 = FACE_OUTER_BOUND ( 'NONE', #106, .T. ) ;
#185 = VECTOR ( 'NONE', #5, 39.37007874015748100 ) ;
#186 = CYLINDRICAL_SURFACE ( 'NONE', #183, 0.1300000000000000000 ) ;
#187 = FACE_OUTER_BOUND ( 'NONE', #108, .T. ) ;
#188 = AXIS2_PLACEMENT_3D ( 'NONE', #2, #1, #161 ) ;
#189 = CYLINDRICAL_SURFACE ( 'NONE', #188, 0.3749999999999999400 ) ;
#190 = FACE_BOUND ( 'NONE', #109, .T. ) ;
#191 = LENGTH_MEASURE_WITH_UNIT ( LENGTH_MEASURE( 0.02539999999999999900 ), #154 );
#192 = AXIS2_PLACEMENT_3D ( 'NONE', #157, #156, #153 ) ;
#193 = STYLED_ITEM ( 'NONE', ( #143 ), #119 ) ;
#194 = PRESENTATION_LAYER_ASSIGNMENT (  '', '', ( #193 ) ) ;
#195 = MECHANICAL_DESIGN_GEOMETRIC_PRESENTATION_REPRESENTATION (  '', ( #193 ), #110 ) ;
#196 = LENGTH_MEASURE_WITH_UNIT ( LENGTH_MEASURE( 0.02539999999999999900 ), #142 );
#197 = AXIS2_PLACEMENT_3D ( 'NONE', #149, #141, #151 ) ;
#198 = PRODUCT_DEFINITION_FORMATION_WITH_SPECIFIED_SOURCE ( 'ANY', '', #115, .NOT_KNOWN. ) ;
#199 = EDGE_CURVE ( 'NONE', #80, #75, #214, .T. ) ;
#200 = COLOUR_RGB ( '',0.5686274509803921400, 0.5686274509803921400, 0.5882352941176470800 ) ;
#201 = EDGE_CURVE ( 'NONE', #77, #76, #212, .T. ) ;
#202 = EDGE_CURVE ( 'NONE', #76, #78, #22, .T. ) ;
#203 = EDGE_CURVE ( 'NONE', #73, #74, #215, .T. ) ;
#204 = EDGE_CURVE ( 'NONE', #74, #75, #16, .T. ) ;
#205 = EDGE_CURVE ( 'NONE', #79, #78, #216, .T. ) ;
#206 = EDGE_CURVE ( 'NONE', #75, #80, #217, .T. ) ;
#207 = EDGE_CURVE ( 'NONE', #73, #80, #7, .T. ) ;
#208 = APPLICATION_CONTEXT ( 'automotive_design' ) ;
#209 = APPLICATION_CONTEXT ( 'automotive_design' ) ;
#210 = PRODUCT_DEFINITION ( 'UNKNOWN', '', #198, #117 ) ;
#211 = PRODUCT_RELATED_PRODUCT_CATEGORY ( 'part', '', ( #115 ) ) ;
#212 = CIRCLE ( 'NONE', #177, 0.3749999999999999400 ) ;
#213 = COLOUR_RGB ( '',0.5686274509803921400, 0.5686274509803921400, 0.5882352941176470800 ) ;
#214 = CIRCLE ( 'NONE', #175, 0.1300000000000000000 ) ;
#215 = CIRCLE ( 'NONE', #169, 0.1300000000000000000 ) ;
#216 = CIRCLE ( 'NONE', #180, 0.3749999999999999400 ) ;
#217 = CIRCLE ( 'NONE', #178, 0.1300000000000000000 ) ;
#218 = ADVANCED_FACE ( 'NONE', ( #181 ), #186, .F. ) ;
#219 = ADVANCED_FACE ( 'NONE', ( #184 ), #189, .T. ) ;
#220 = ADVANCED_FACE ( 'NONE', ( #187, #190 ), #160, .F. ) ;
#221 = CIRCLE ( 'NONE', #127, 0.1300000000000000000 ) ;
#222 = CIRCLE ( 'NONE', #132, 0.3749999999999999400 ) ;
#223 = CIRCLE ( 'NONE', #128, 0.3749999999999999400 ) ;
ENDSEC;
END-ISO-10303-21;
