ISO-10303-21;
HEADER;
FILE_DESCRIPTION (( 'STEP AP214' ),
    '1' );
FILE_NAME ('H250H-DM.step',
    '2012-04-20T20:59:14',
    ( '' ),
    ( '' ),
    'SwSTEP 2.0',
    'SolidWorks 2012',
    '' );
FILE_SCHEMA (( 'AUTOMOTIVE_DESIGN' ));
ENDSEC;

DATA;
#1 = EDGE_CURVE ( 'NONE', #83, #82, #2, .T. ) ;
#2 = CIRCLE ( 'NONE', #166, 0.2550000000000000000 ) ;
#3 = EDGE_CURVE ( 'NONE', #80, #81, #221, .T. ) ;
#4 = EDGE_CURVE ( 'NONE', #81, #82, #72, .T. ) ;
#5 = EDGE_CURVE ( 'NONE', #81, #80, #222, .T. ) ;
#6 = EDGE_CURVE ( 'NONE', #84, #86, #66, .T. ) ;
#7 = EDGE_CURVE ( 'NONE', #85, #87, #62, .T. ) ;
#8 = EDGE_CURVE ( 'NONE', #85, #84, #223, .T. ) ;
#9 = EDGE_CURVE ( 'NONE', #82, #83, #213, .T. ) ;
#10 = DIRECTION ( 'NONE',  ( 0.0000000000000000000, 0.0000000000000000000, 1.000000000000000000 ) ) ;
#11 = CARTESIAN_POINT ( 'NONE',  ( 0.0000000000000000000, 0.0000000000000000000, 0.2500000000000000000 ) ) ;
#12 = PLANE ( 'NONE',  #150 ) ;
#13 = DIRECTION ( 'NONE',  ( 1.000000000000000000, 0.0000000000000000000, -0.0000000000000000000 ) ) ;
#14 = DIRECTION ( 'NONE',  ( 0.0000000000000000000, 0.0000000000000000000, 1.000000000000000000 ) ) ;
#15 = CARTESIAN_POINT ( 'NONE',  ( 0.0000000000000000000, 0.0000000000000000000, 0.0000000000000000000 ) ) ;
#16 = PLANE ( 'NONE',  #148 ) ;
#17 = DIRECTION ( 'NONE',  ( -1.000000000000000000, 0.0000000000000000000, 0.0000000000000000000 ) ) ;
#18 = DIRECTION ( 'NONE',  ( -0.0000000000000000000, -0.0000000000000000000, -1.000000000000000000 ) ) ;
#19 = CARTESIAN_POINT ( 'NONE',  ( 0.0000000000000000000, 0.0000000000000000000, 0.2500000000000000000 ) ) ;
#20 = DIRECTION ( 'NONE',  ( -1.000000000000000000, 0.0000000000000000000, 0.0000000000000000000 ) ) ;
#21 = DIRECTION ( 'NONE',  ( -0.0000000000000000000, -0.0000000000000000000, -1.000000000000000000 ) ) ;
#22 = CARTESIAN_POINT ( 'NONE',  ( 0.0000000000000000000, 0.0000000000000000000, 0.2500000000000000000 ) ) ;
#23 = DIRECTION ( 'NONE',  ( 1.000000000000000000, 0.0000000000000000000, 0.0000000000000000000 ) ) ;
#24 = DIRECTION ( 'NONE',  ( 0.0000000000000000000, 0.0000000000000000000, 1.000000000000000000 ) ) ;
#25 = CARTESIAN_POINT ( 'NONE',  ( 0.0000000000000000000, 0.0000000000000000000, 0.0000000000000000000 ) ) ;
#26 = DIRECTION ( 'NONE',  ( 1.000000000000000000, 0.0000000000000000000, 0.0000000000000000000 ) ) ;
#27 = DIRECTION ( 'NONE',  ( 0.0000000000000000000, 0.0000000000000000000, 1.000000000000000000 ) ) ;
#28 = CARTESIAN_POINT ( 'NONE',  ( 0.0000000000000000000, 0.0000000000000000000, 0.2500000000000000000 ) ) ;
#29 = DIRECTION ( 'NONE',  ( 1.000000000000000000, 0.0000000000000000000, 0.0000000000000000000 ) ) ;
#30 = DIRECTION ( 'NONE',  ( 0.0000000000000000000, 0.0000000000000000000, 1.000000000000000000 ) ) ;
#31 = CARTESIAN_POINT ( 'NONE',  ( 0.0000000000000000000, 0.0000000000000000000, 0.0000000000000000000 ) ) ;
#32 = DIRECTION ( 'NONE',  ( -0.0000000000000000000, -0.0000000000000000000, -1.000000000000000000 ) ) ;
#33 = CARTESIAN_POINT ( 'NONE',  ( -0.2550000000000000000, 0.0000000000000000000, 0.2500000000000000000 ) ) ;
#34 = LINE ( 'NONE', #33, #136 ) ;
#35 =( NAMED_UNIT ( * ) SI_UNIT ( $, .STERADIAN. ) SOLID_ANGLE_UNIT ( ) );
#36 =( NAMED_UNIT ( * ) PLANE_ANGLE_UNIT ( ) SI_UNIT ( $, .RADIAN. ) );
#37 =( CONVERSION_BASED_UNIT ( 'INCH', #131 ) LENGTH_UNIT ( ) NAMED_UNIT ( #119 ) );
#38 =( LENGTH_UNIT ( ) NAMED_UNIT ( * ) SI_UNIT ( $, .METRE. ) );
#39 = PRESENTATION_STYLE_ASSIGNMENT (( #40 ) ) ;
#40 = SURFACE_STYLE_USAGE ( .BOTH. , #41 ) ;
#41 = SURFACE_SIDE_STYLE ('',( #42 ) ) ;
#42 = SURFACE_STYLE_FILL_AREA ( #43 ) ;
#43 = FILL_AREA_STYLE ('',( #59 ) ) ;
#44 = CARTESIAN_POINT ( 'NONE',  ( -0.5000000000000000000, 0.0000000000000000000, 0.0000000000000000000 ) ) ;
#45 = CARTESIAN_POINT ( 'NONE',  ( 0.5000000000000000000, 6.123233995736766000E-017, 0.0000000000000000000 ) ) ;
#46 = CARTESIAN_POINT ( 'NONE',  ( -0.5000000000000000000, 0.0000000000000000000, 0.2500000000000000000 ) ) ;
#47 = CARTESIAN_POINT ( 'NONE',  ( 0.5000000000000000000, 6.123233995736766000E-017, 0.2500000000000000000 ) ) ;
#48 = EDGE_LOOP ( 'NONE', ( #93, #103, #101, #95 ) ) ;
#49 = EDGE_LOOP ( 'NONE', ( #92, #89 ) ) ;
#50 = EDGE_LOOP ( 'NONE', ( #104, #105, #90, #98 ) ) ;
#51 = CARTESIAN_POINT ( 'NONE',  ( 0.2550000000000000000, 3.122849337825751200E-017, 0.2500000000000000000 ) ) ;
#52 = CARTESIAN_POINT ( 'NONE',  ( 0.2550000000000000000, 3.122849337825751200E-017, 0.0000000000000000000 ) ) ;
#53 = CARTESIAN_POINT ( 'NONE',  ( -0.2550000000000000000, 0.0000000000000000000, 0.2500000000000000000 ) ) ;
#54 = DIRECTION ( 'NONE',  ( 1.000000000000000000, 0.0000000000000000000, 0.0000000000000000000 ) ) ;
#55 = DIRECTION ( 'NONE',  ( 0.0000000000000000000, 0.0000000000000000000, 1.000000000000000000 ) ) ;
#56 = CARTESIAN_POINT ( 'NONE',  ( -0.2550000000000000000, 0.0000000000000000000, 0.0000000000000000000 ) ) ;
#57 = CARTESIAN_POINT ( 'NONE',  ( 0.0000000000000000000, 0.0000000000000000000, 0.0000000000000000000 ) ) ;
#58 = DIRECTION ( 'NONE',  ( 0.0000000000000000000, 0.0000000000000000000, 1.000000000000000000 ) ) ;
#59 = FILL_AREA_STYLE_COLOUR ( '', #210 ) ;
#60 = CARTESIAN_POINT ( 'NONE',  ( -0.5000000000000000000, 0.0000000000000000000, 0.2500000000000000000 ) ) ;
#61 = DIRECTION ( 'NONE',  ( 1.000000000000000000, 0.0000000000000000000, 0.0000000000000000000 ) ) ;
#62 = LINE ( 'NONE', #60, #170 ) ;
#63 = DIRECTION ( 'NONE',  ( -0.0000000000000000000, -0.0000000000000000000, -1.000000000000000000 ) ) ;
#64 = CARTESIAN_POINT ( 'NONE',  ( 0.5000000000000000000, 6.123233995736766000E-017, 0.2500000000000000000 ) ) ;
#65 = DIRECTION ( 'NONE',  ( -0.0000000000000000000, -0.0000000000000000000, -1.000000000000000000 ) ) ;
#66 = LINE ( 'NONE', #64, #169 ) ;
#67 = CARTESIAN_POINT ( 'NONE',  ( 0.0000000000000000000, 0.0000000000000000000, 0.2500000000000000000 ) ) ;
#68 = DIRECTION ( 'NONE',  ( 1.000000000000000000, 0.0000000000000000000, 0.0000000000000000000 ) ) ;
#69 = DIRECTION ( 'NONE',  ( 0.0000000000000000000, 0.0000000000000000000, 1.000000000000000000 ) ) ;
#70 = DIRECTION ( 'NONE',  ( -0.0000000000000000000, -0.0000000000000000000, -1.000000000000000000 ) ) ;
#71 = CARTESIAN_POINT ( 'NONE',  ( 0.2550000000000000000, 3.122849337825751200E-017, 0.2500000000000000000 ) ) ;
#72 = LINE ( 'NONE', #71, #162 ) ;
#73 = CARTESIAN_POINT ( 'NONE',  ( 0.0000000000000000000, 0.0000000000000000000, 0.2500000000000000000 ) ) ;
#74 = DIRECTION ( 'NONE',  ( 1.000000000000000000, 0.0000000000000000000, 0.0000000000000000000 ) ) ;
#75 = DIRECTION ( 'NONE',  ( 0.0000000000000000000, 0.0000000000000000000, 1.000000000000000000 ) ) ;
#76 = CARTESIAN_POINT ( 'NONE',  ( 0.0000000000000000000, 0.0000000000000000000, 0.2500000000000000000 ) ) ;
#77 = DIRECTION ( 'NONE',  ( 1.000000000000000000, 0.0000000000000000000, 0.0000000000000000000 ) ) ;
#78 = DIRECTION ( 'NONE',  ( 0.0000000000000000000, 0.0000000000000000000, 1.000000000000000000 ) ) ;
#79 = CARTESIAN_POINT ( 'NONE',  ( 0.0000000000000000000, 0.0000000000000000000, 0.0000000000000000000 ) ) ;
#80 = VERTEX_POINT ( 'NONE', #53 ) ;
#81 = VERTEX_POINT ( 'NONE', #51 ) ;
#82 = VERTEX_POINT ( 'NONE', #52 ) ;
#83 = VERTEX_POINT ( 'NONE', #56 ) ;
#84 = VERTEX_POINT ( 'NONE', #47 ) ;
#85 = VERTEX_POINT ( 'NONE', #46 ) ;
#86 = VERTEX_POINT ( 'NONE', #45 ) ;
#87 = VERTEX_POINT ( 'NONE', #44 ) ;
#88 = ORIENTED_EDGE ( 'NONE', *, *, #6, .T. ) ;
#89 = ORIENTED_EDGE ( 'NONE', *, *, #203, .T. ) ;
#90 = ORIENTED_EDGE ( 'NONE', *, *, #201, .T. ) ;
#91 = ORIENTED_EDGE ( 'NONE', *, *, #203, .F. ) ;
#92 = ORIENTED_EDGE ( 'NONE', *, *, #8, .T. ) ;
#93 = ORIENTED_EDGE ( 'NONE', *, *, #6, .F. ) ;
#94 = ORIENTED_EDGE ( 'NONE', *, *, #5, .F. ) ;
#95 = ORIENTED_EDGE ( 'NONE', *, *, #202, .T. ) ;
#96 = ORIENTED_EDGE ( 'NONE', *, *, #202, .F. ) ;
#97 = ORIENTED_EDGE ( 'NONE', *, *, #9, .T. ) ;
#98 = ORIENTED_EDGE ( 'NONE', *, *, #9, .F. ) ;
#99 = ORIENTED_EDGE ( 'NONE', *, *, #204, .T. ) ;
#100 = ORIENTED_EDGE ( 'NONE', *, *, #1, .T. ) ;
#101 = ORIENTED_EDGE ( 'NONE', *, *, #7, .T. ) ;
#102 = ORIENTED_EDGE ( 'NONE', *, *, #7, .F. ) ;
#103 = ORIENTED_EDGE ( 'NONE', *, *, #8, .F. ) ;
#104 = ORIENTED_EDGE ( 'NONE', *, *, #4, .F. ) ;
#105 = ORIENTED_EDGE ( 'NONE', *, *, #5, .T. ) ;
#106 = ORIENTED_EDGE ( 'NONE', *, *, #3, .T. ) ;
#107 = ORIENTED_EDGE ( 'NONE', *, *, #204, .F. ) ;
#108 = ORIENTED_EDGE ( 'NONE', *, *, #1, .F. ) ;
#109 = ORIENTED_EDGE ( 'NONE', *, *, #4, .T. ) ;
#110 = ORIENTED_EDGE ( 'NONE', *, *, #201, .F. ) ;
#111 = ORIENTED_EDGE ( 'NONE', *, *, #3, .F. ) ;
#112 = EDGE_LOOP ( 'NONE', ( #106, #109, #108, #110 ) ) ;
#113 = EDGE_LOOP ( 'NONE', ( #91, #88, #99, #102 ) ) ;
#114 = EDGE_LOOP ( 'NONE', ( #111, #94 ) ) ;
#115 = EDGE_LOOP ( 'NONE', ( #96, #107 ) ) ;
#116 = EDGE_LOOP ( 'NONE', ( #100, #97 ) ) ;
#117 =( GEOMETRIC_REPRESENTATION_CONTEXT ( 3 ) GLOBAL_UNCERTAINTY_ASSIGNED_CONTEXT ( ( #127 ) ) GLOBAL_UNIT_ASSIGNED_CONTEXT ( ( #175, #176, #177 ) ) REPRESENTATION_CONTEXT ( 'NONE', 'WORKASPACE' ) );
#118 =( GEOMETRIC_REPRESENTATION_CONTEXT ( 3 ) GLOBAL_UNCERTAINTY_ASSIGNED_CONTEXT ( ( #128 ) ) GLOBAL_UNIT_ASSIGNED_CONTEXT ( ( #192, #195, #189 ) ) REPRESENTATION_CONTEXT ( 'NONE', 'WORKASPACE' ) );
#119 = DIMENSIONAL_EXPONENTS ( 1.000000000000000000, 0.0000000000000000000, 0.0000000000000000000, 0.0000000000000000000, 0.0000000000000000000, 0.0000000000000000000, 0.0000000000000000000 ) ;
#120 = DIMENSIONAL_EXPONENTS ( 1.000000000000000000, 0.0000000000000000000, 0.0000000000000000000, 0.0000000000000000000, 0.0000000000000000000, 0.0000000000000000000, 0.0000000000000000000 ) ;
#121 = DIMENSIONAL_EXPONENTS ( 1.000000000000000000, 0.0000000000000000000, 0.0000000000000000000, 0.0000000000000000000, 0.0000000000000000000, 0.0000000000000000000, 0.0000000000000000000 ) ;
#122 = PRODUCT ( 'H250H-DM', 'H250H-DM', '', ( #183 ) ) ;
#123 = MANIFOLD_SOLID_BREP ( 'Boss-Extrude1', #167 ) ;
#124 = PRODUCT_DEFINITION_SHAPE ( 'NONE', 'NONE',  #211 ) ;
#125 = PRODUCT_DEFINITION_CONTEXT ( 'detailed design', #209, 'design' ) ;
#126 = UNCERTAINTY_MEASURE_WITH_UNIT (LENGTH_MEASURE( 1.000000000000000100E-005 ), #37, 'distance_accuracy_value', 'NONE');
#127 = UNCERTAINTY_MEASURE_WITH_UNIT (LENGTH_MEASURE( 1.000000000000000100E-005 ), #175, 'distance_accuracy_value', 'NONE');
#128 = UNCERTAINTY_MEASURE_WITH_UNIT (LENGTH_MEASURE( 1.000000000000000100E-005 ), #192, 'distance_accuracy_value', 'NONE');
#129 = ADVANCED_BREP_SHAPE_REPRESENTATION ( 'H250H-DM', ( #123, #159 ), #118 ) ;
#130 = AXIS2_PLACEMENT_3D ( 'NONE', #57, #55, #54 ) ;
#131 = LENGTH_MEASURE_WITH_UNIT ( LENGTH_MEASURE( 0.02539999999999999900 ), #38 );
#132 = AXIS2_PLACEMENT_3D ( 'NONE', #199, #198, #197 ) ;
#133 = AXIS2_PLACEMENT_3D ( 'NONE', #28, #27, #26 ) ;
#134 = AXIS2_PLACEMENT_3D ( 'NONE', #25, #24, #23 ) ;
#135 = AXIS2_PLACEMENT_3D ( 'NONE', #31, #30, #29 ) ;
#136 = VECTOR ( 'NONE', #32, 39.37007874015748100 ) ;
#137 = FACE_OUTER_BOUND ( 'NONE', #50, .T. ) ;
#138 = AXIS2_PLACEMENT_3D ( 'NONE', #22, #21, #20 ) ;
#139 = FACE_OUTER_BOUND ( 'NONE', #48, .T. ) ;
#140 = CYLINDRICAL_SURFACE ( 'NONE', #138, 0.2550000000000000000 ) ;
#141 = FACE_OUTER_BOUND ( 'NONE', #115, .T. ) ;
#142 = AXIS2_PLACEMENT_3D ( 'NONE', #19, #18, #17 ) ;
#143 = CYLINDRICAL_SURFACE ( 'NONE', #142, 0.5000000000000000000 ) ;
#144 = FACE_BOUND ( 'NONE', #114, .T. ) ;
#145 = FACE_BOUND ( 'NONE', #116, .T. ) ;
#146 = FACE_OUTER_BOUND ( 'NONE', #49, .T. ) ;
#147 = FACE_OUTER_BOUND ( 'NONE', #113, .T. ) ;
#148 = AXIS2_PLACEMENT_3D ( 'NONE', #15, #14, #13 ) ;
#149 = FACE_OUTER_BOUND ( 'NONE', #112, .T. ) ;
#150 = AXIS2_PLACEMENT_3D ( 'NONE', #11, #10, #200 ) ;
#151 = CYLINDRICAL_SURFACE ( 'NONE', #132, 0.2550000000000000000 ) ;
#152 = AXIS2_PLACEMENT_3D ( 'NONE', #196, #193, #191 ) ;
#153 = CYLINDRICAL_SURFACE ( 'NONE', #152, 0.5000000000000000000 ) ;
#154 = LENGTH_MEASURE_WITH_UNIT ( LENGTH_MEASURE( 0.02539999999999999900 ), #190 );
#155 = STYLED_ITEM ( 'NONE', ( #178 ), #129 ) ;
#156 = PRESENTATION_LAYER_ASSIGNMENT (  '', '', ( #155 ) ) ;
#157 = MECHANICAL_DESIGN_GEOMETRIC_PRESENTATION_REPRESENTATION (  '', ( #155 ), #117 ) ;
#158 = LENGTH_MEASURE_WITH_UNIT ( LENGTH_MEASURE( 0.02539999999999999900 ), #179 );
#159 = AXIS2_PLACEMENT_3D ( 'NONE', #173, #194, #186 ) ;
#160 = PRODUCT_DEFINITION_FORMATION_WITH_SPECIFIED_SOURCE ( 'ANY', '', #122, .NOT_KNOWN. ) ;
#161 = PRESENTATION_LAYER_ASSIGNMENT (  '', '', ( #171 ) ) ;
#162 = VECTOR ( 'NONE', #70, 39.37007874015748100 ) ;
#163 = AXIS2_PLACEMENT_3D ( 'NONE', #67, #58, #61 ) ;
#164 = AXIS2_PLACEMENT_3D ( 'NONE', #76, #75, #74 ) ;
#165 = AXIS2_PLACEMENT_3D ( 'NONE', #73, #69, #68 ) ;
#166 = AXIS2_PLACEMENT_3D ( 'NONE', #79, #78, #77 ) ;
#167 = CLOSED_SHELL ( 'NONE', ( #219, #220, #218, #207, #206, #205 ) ) ;
#168 = MECHANICAL_DESIGN_GEOMETRIC_PRESENTATION_REPRESENTATION (  '', ( #171 ), #172 ) ;
#169 = VECTOR ( 'NONE', #63, 39.37007874015748100 ) ;
#170 = VECTOR ( 'NONE', #65, 39.37007874015748100 ) ;
#171 = STYLED_ITEM ( 'NONE', ( #39 ), #123 ) ;
#172 =( GEOMETRIC_REPRESENTATION_CONTEXT ( 3 ) GLOBAL_UNCERTAINTY_ASSIGNED_CONTEXT ( ( #126 ) ) GLOBAL_UNIT_ASSIGNED_CONTEXT ( ( #37, #36, #35 ) ) REPRESENTATION_CONTEXT ( 'NONE', 'WORKASPACE' ) );
#173 = CARTESIAN_POINT ( 'NONE',  ( 0.0000000000000000000, 0.0000000000000000000, 0.0000000000000000000 ) ) ;
#174 = SURFACE_STYLE_USAGE ( .BOTH. , #180 ) ;
#175 =( CONVERSION_BASED_UNIT ( 'INCH', #158 ) LENGTH_UNIT ( ) NAMED_UNIT ( #121 ) );
#176 =( NAMED_UNIT ( * ) PLANE_ANGLE_UNIT ( ) SI_UNIT ( $, .RADIAN. ) );
#177 =( NAMED_UNIT ( * ) SI_UNIT ( $, .STERADIAN. ) SOLID_ANGLE_UNIT ( ) );
#178 = PRESENTATION_STYLE_ASSIGNMENT (( #174 ) ) ;
#179 =( LENGTH_UNIT ( ) NAMED_UNIT ( * ) SI_UNIT ( $, .METRE. ) );
#180 = SURFACE_SIDE_STYLE ('',( #181 ) ) ;
#181 = SURFACE_STYLE_FILL_AREA ( #184 ) ;
#182 = APPLICATION_PROTOCOL_DEFINITION ( 'draft international standard', 'automotive_design', 1998, #209 ) ;
#183 = PRODUCT_CONTEXT ( 'NONE', #208, 'mechanical' ) ;
#184 = FILL_AREA_STYLE ('',( #187 ) ) ;
#185 = SHAPE_DEFINITION_REPRESENTATION ( #124, #129 ) ;
#186 = DIRECTION ( 'NONE',  ( 1.000000000000000000, 0.0000000000000000000, 0.0000000000000000000 ) ) ;
#187 = FILL_AREA_STYLE_COLOUR ( '', #214 ) ;
#188 = APPLICATION_PROTOCOL_DEFINITION ( 'draft international standard', 'automotive_design', 1998, #208 ) ;
#189 =( NAMED_UNIT ( * ) SI_UNIT ( $, .STERADIAN. ) SOLID_ANGLE_UNIT ( ) );
#190 =( LENGTH_UNIT ( ) NAMED_UNIT ( * ) SI_UNIT ( $, .METRE. ) );
#191 = DIRECTION ( 'NONE',  ( -1.000000000000000000, 0.0000000000000000000, 0.0000000000000000000 ) ) ;
#192 =( CONVERSION_BASED_UNIT ( 'INCH', #154 ) LENGTH_UNIT ( ) NAMED_UNIT ( #120 ) );
#193 = DIRECTION ( 'NONE',  ( -0.0000000000000000000, -0.0000000000000000000, -1.000000000000000000 ) ) ;
#194 = DIRECTION ( 'NONE',  ( 0.0000000000000000000, 0.0000000000000000000, 1.000000000000000000 ) ) ;
#195 =( NAMED_UNIT ( * ) PLANE_ANGLE_UNIT ( ) SI_UNIT ( $, .RADIAN. ) );
#196 = CARTESIAN_POINT ( 'NONE',  ( 0.0000000000000000000, 0.0000000000000000000, 0.2500000000000000000 ) ) ;
#197 = DIRECTION ( 'NONE',  ( -1.000000000000000000, 0.0000000000000000000, 0.0000000000000000000 ) ) ;
#198 = DIRECTION ( 'NONE',  ( -0.0000000000000000000, -0.0000000000000000000, -1.000000000000000000 ) ) ;
#199 = CARTESIAN_POINT ( 'NONE',  ( 0.0000000000000000000, 0.0000000000000000000, 0.2500000000000000000 ) ) ;
#200 = DIRECTION ( 'NONE',  ( 1.000000000000000000, 0.0000000000000000000, -0.0000000000000000000 ) ) ;
#201 = EDGE_CURVE ( 'NONE', #80, #83, #34, .T. ) ;
#202 = EDGE_CURVE ( 'NONE', #87, #86, #217, .T. ) ;
#203 = EDGE_CURVE ( 'NONE', #84, #85, #216, .T. ) ;
#204 = EDGE_CURVE ( 'NONE', #86, #87, #215, .T. ) ;
#205 = ADVANCED_FACE ( 'NONE', ( #137 ), #140, .F. ) ;
#206 = ADVANCED_FACE ( 'NONE', ( #139 ), #143, .T. ) ;
#207 = ADVANCED_FACE ( 'NONE', ( #141, #145 ), #16, .F. ) ;
#208 = APPLICATION_CONTEXT ( 'automotive_design' ) ;
#209 = APPLICATION_CONTEXT ( 'automotive_design' ) ;
#210 = COLOUR_RGB ( '',0.5686274509803921400, 0.5686274509803921400, 0.5882352941176470800 ) ;
#211 = PRODUCT_DEFINITION ( 'UNKNOWN', '', #160, #125 ) ;
#212 = PRODUCT_RELATED_PRODUCT_CATEGORY ( 'part', '', ( #122 ) ) ;
#213 = CIRCLE ( 'NONE', #130, 0.2550000000000000000 ) ;
#214 = COLOUR_RGB ( '',0.5686274509803921400, 0.5686274509803921400, 0.5882352941176470800 ) ;
#215 = CIRCLE ( 'NONE', #134, 0.5000000000000000000 ) ;
#216 = CIRCLE ( 'NONE', #133, 0.5000000000000000000 ) ;
#217 = CIRCLE ( 'NONE', #135, 0.5000000000000000000 ) ;
#218 = ADVANCED_FACE ( 'NONE', ( #146, #144 ), #12, .T. ) ;
#219 = ADVANCED_FACE ( 'NONE', ( #149 ), #151, .F. ) ;
#220 = ADVANCED_FACE ( 'NONE', ( #147 ), #153, .T. ) ;
#221 = CIRCLE ( 'NONE', #164, 0.2550000000000000000 ) ;
#222 = CIRCLE ( 'NONE', #165, 0.2550000000000000000 ) ;
#223 = CIRCLE ( 'NONE', #163, 0.5000000000000000000 ) ;
ENDSEC;
END-ISO-10303-21;
