ISO-10303-21;
HEADER;
FILE_DESCRIPTION (( 'STEP AP214' ),
    '1' );
FILE_NAME ('H500-4000-1000-DM.step',
    '2012-04-20T23:14:25',
    ( '' ),
    ( '' ),
    'SwSTEP 2.0',
    'SolidWorks 2012',
    '' );
FILE_SCHEMA (( 'AUTOMOTIVE_DESIGN' ));
ENDSEC;

DATA;
#1 = UNCERTAINTY_MEASURE_WITH_UNIT (LENGTH_MEASURE( 1.000000000000000100E-005 ), #104, 'distance_accuracy_value', 'NONE');
#2 = UNCERTAINTY_MEASURE_WITH_UNIT (LENGTH_MEASURE( 1.000000000000000100E-005 ), #118, 'distance_accuracy_value', 'NONE');
#3 = UNCERTAINTY_MEASURE_WITH_UNIT (LENGTH_MEASURE( 1.000000000000000100E-005 ), #188, 'distance_accuracy_value', 'NONE');
#4 = ADVANCED_BREP_SHAPE_REPRESENTATION ( 'H500-4000-1000-DM', ( #7, #89 ), #55 ) ;
#5 = PRODUCT_DEFINITION_SHAPE ( 'NONE', 'NONE',  #74 ) ;
#6 = PRODUCT_DEFINITION_CONTEXT ( 'detailed design', #84, 'design' ) ;
#7 = MANIFOLD_SOLID_BREP ( 'Boss-Extrude1', #10 ) ;
#8 = AXIS2_PLACEMENT_3D ( 'NONE', #176, #175, #174 ) ;
#9 = FACE_OUTER_BOUND ( 'NONE', #45, .T. ) ;
#10 = CLOSED_SHELL ( 'NONE', ( #81, #82, #80, #79, #78, #21 ) ) ;
#11 = STYLED_ITEM ( 'NONE', ( #190 ), #7 ) ;
#12 = PRESENTATION_LAYER_ASSIGNMENT (  '', '', ( #11 ) ) ;
#13 = AXIS2_PLACEMENT_3D ( 'NONE', #182, #181, #180 ) ;
#14 = CYLINDRICAL_SURFACE ( 'NONE', #13, 0.5000000000000000000 ) ;
#15 = LENGTH_MEASURE_WITH_UNIT ( LENGTH_MEASURE( 0.02539999999999999900 ), #189 );
#16 = MECHANICAL_DESIGN_GEOMETRIC_PRESENTATION_REPRESENTATION (  '', ( #11 ), #54 ) ;
#17 = COLOUR_RGB ( '',0.5686274509803921400, 0.5686274509803921400, 0.5882352941176470800 ) ;
#18 = CIRCLE ( 'NONE', #64, 2.000000000000000000 ) ;
#19 = CIRCLE ( 'NONE', #66, 0.5000000000000000000 ) ;
#20 = EDGE_CURVE ( 'NONE', #202, #198, #185, .T. ) ;
#21 = ADVANCED_FACE ( 'NONE', ( #9 ), #14, .F. ) ;
#22 = EDGE_CURVE ( 'NONE', #201, #203, #179, .T. ) ;
#23 = EDGE_CURVE ( 'NONE', #196, #200, #27, .T. ) ;
#24 = EDGE_CURVE ( 'NONE', #201, #202, #29, .T. ) ;
#25 = EDGE_CURVE ( 'NONE', #199, #197, #31, .T. ) ;
#26 = EDGE_CURVE ( 'NONE', #198, #203, #34, .T. ) ;
#27 = CIRCLE ( 'NONE', #8, 2.000000000000000000 ) ;
#28 = EDGE_CURVE ( 'NONE', #203, #198, #32, .T. ) ;
#29 = CIRCLE ( 'NONE', #71, 0.5000000000000000000 ) ;
#30 = EDGE_CURVE ( 'NONE', #200, #197, #160, .T. ) ;
#31 = CIRCLE ( 'NONE', #73, 2.000000000000000000 ) ;
#32 = CIRCLE ( 'NONE', #68, 0.5000000000000000000 ) ;
#33 = EDGE_CURVE ( 'NONE', #202, #201, #19, .T. ) ;
#34 = CIRCLE ( 'NONE', #69, 0.5000000000000000000 ) ;
#35 = CIRCLE ( 'NONE', #70, 2.000000000000000000 ) ;
#36 = COLOUR_RGB ( '',0.5686274509803921400, 0.5686274509803921400, 0.5882352941176470800 ) ;
#37 = EDGE_CURVE ( 'NONE', #196, #199, #154, .T. ) ;
#38 = ORIENTED_EDGE ( 'NONE', *, *, #37, .F. ) ;
#39 = ORIENTED_EDGE ( 'NONE', *, *, #30, .T. ) ;
#40 = ORIENTED_EDGE ( 'NONE', *, *, #76, .T. ) ;
#41 = ORIENTED_EDGE ( 'NONE', *, *, #77, .F. ) ;
#42 = EDGE_LOOP ( 'NONE', ( #222, #219 ) ) ;
#43 = EDGE_LOOP ( 'NONE', ( #218, #214 ) ) ;
#44 = EDGE_LOOP ( 'NONE', ( #216, #212, #211, #213 ) ) ;
#45 = EDGE_LOOP ( 'NONE', ( #209, #208, #207, #221 ) ) ;
#46 = EDGE_LOOP ( 'NONE', ( #217, #215 ) ) ;
#47 = EDGE_LOOP ( 'NONE', ( #223, #220 ) ) ;
#48 = EDGE_LOOP ( 'NONE', ( #41, #39, #40, #38 ) ) ;
#49 = EDGE_LOOP ( 'NONE', ( #210, #206, #205, #204 ) ) ;
#50 = DIMENSIONAL_EXPONENTS ( 1.000000000000000000, 0.0000000000000000000, 0.0000000000000000000, 0.0000000000000000000, 0.0000000000000000000, 0.0000000000000000000, 0.0000000000000000000 ) ;
#51 = DIMENSIONAL_EXPONENTS ( 1.000000000000000000, 0.0000000000000000000, 0.0000000000000000000, 0.0000000000000000000, 0.0000000000000000000, 0.0000000000000000000, 0.0000000000000000000 ) ;
#52 = PRODUCT ( 'H500-4000-1000-DM', 'H500-4000-1000-DM', '', ( #114 ) ) ;
#53 = DIMENSIONAL_EXPONENTS ( 1.000000000000000000, 0.0000000000000000000, 0.0000000000000000000, 0.0000000000000000000, 0.0000000000000000000, 0.0000000000000000000, 0.0000000000000000000 ) ;
#54 =( GEOMETRIC_REPRESENTATION_CONTEXT ( 3 ) GLOBAL_UNCERTAINTY_ASSIGNED_CONTEXT ( ( #3 ) ) GLOBAL_UNIT_ASSIGNED_CONTEXT ( ( #188, #187, #186 ) ) REPRESENTATION_CONTEXT ( 'NONE', 'WORKASPACE' ) );
#55 =( GEOMETRIC_REPRESENTATION_CONTEXT ( 3 ) GLOBAL_UNCERTAINTY_ASSIGNED_CONTEXT ( ( #2 ) ) GLOBAL_UNIT_ASSIGNED_CONTEXT ( ( #118, #117, #116 ) ) REPRESENTATION_CONTEXT ( 'NONE', 'WORKASPACE' ) );
#56 =( GEOMETRIC_REPRESENTATION_CONTEXT ( 3 ) GLOBAL_UNCERTAINTY_ASSIGNED_CONTEXT ( ( #1 ) ) GLOBAL_UNIT_ASSIGNED_CONTEXT ( ( #104, #103, #102 ) ) REPRESENTATION_CONTEXT ( 'NONE', 'WORKASPACE' ) );
#57 = FACE_BOUND ( 'NONE', #43, .T. ) ;
#58 = FACE_BOUND ( 'NONE', #42, .T. ) ;
#59 = CYLINDRICAL_SURFACE ( 'NONE', #62, 2.000000000000000000 ) ;
#60 = FACE_OUTER_BOUND ( 'NONE', #46, .T. ) ;
#61 = FACE_OUTER_BOUND ( 'NONE', #44, .T. ) ;
#62 = AXIS2_PLACEMENT_3D ( 'NONE', #146, #145, #144 ) ;
#63 = VECTOR ( 'NONE', #152, 39.37007874015748100 ) ;
#64 = AXIS2_PLACEMENT_3D ( 'NONE', #155, #151, #150 ) ;
#65 = VECTOR ( 'NONE', #158, 39.37007874015748100 ) ;
#66 = AXIS2_PLACEMENT_3D ( 'NONE', #161, #157, #156 ) ;
#67 = VECTOR ( 'NONE', #183, 39.37007874015748100 ) ;
#68 = AXIS2_PLACEMENT_3D ( 'NONE', #164, #163, #162 ) ;
#69 = AXIS2_PLACEMENT_3D ( 'NONE', #167, #166, #165 ) ;
#70 = AXIS2_PLACEMENT_3D ( 'NONE', #149, #148, #147 ) ;
#71 = AXIS2_PLACEMENT_3D ( 'NONE', #173, #172, #171 ) ;
#72 = VECTOR ( 'NONE', #177, 39.37007874015748100 ) ;
#73 = AXIS2_PLACEMENT_3D ( 'NONE', #170, #169, #168 ) ;
#74 = PRODUCT_DEFINITION ( 'UNKNOWN', '', #98, #6 ) ;
#75 = PRODUCT_RELATED_PRODUCT_CATEGORY ( 'part', '', ( #52 ) ) ;
#76 = EDGE_CURVE ( 'NONE', #197, #199, #18, .T. ) ;
#77 = EDGE_CURVE ( 'NONE', #200, #196, #35, .T. ) ;
#78 = ADVANCED_FACE ( 'NONE', ( #61 ), #59, .T. ) ;
#79 = ADVANCED_FACE ( 'NONE', ( #60, #57 ), #143, .F. ) ;
#80 = ADVANCED_FACE ( 'NONE', ( #100, #58 ), #137, .T. ) ;
#81 = ADVANCED_FACE ( 'NONE', ( #94 ), #88, .F. ) ;
#82 = ADVANCED_FACE ( 'NONE', ( #91 ), #93, .T. ) ;
#83 = APPLICATION_CONTEXT ( 'automotive_design' ) ;
#84 = APPLICATION_CONTEXT ( 'automotive_design' ) ;
#85 = AXIS2_PLACEMENT_3D ( 'NONE', #142, #141, #140 ) ;
#86 = LENGTH_MEASURE_WITH_UNIT ( LENGTH_MEASURE( 0.02539999999999999900 ), #105 );
#87 = STYLED_ITEM ( 'NONE', ( #106 ), #4 ) ;
#88 = CYLINDRICAL_SURFACE ( 'NONE', #95, 0.5000000000000000000 ) ;
#89 = AXIS2_PLACEMENT_3D ( 'NONE', #127, #126, #115 ) ;
#90 = PRESENTATION_LAYER_ASSIGNMENT (  '', '', ( #87 ) ) ;
#91 = FACE_OUTER_BOUND ( 'NONE', #48, .T. ) ;
#92 = MECHANICAL_DESIGN_GEOMETRIC_PRESENTATION_REPRESENTATION (  '', ( #87 ), #56 ) ;
#93 = CYLINDRICAL_SURFACE ( 'NONE', #96, 2.000000000000000000 ) ;
#94 = FACE_OUTER_BOUND ( 'NONE', #49, .T. ) ;
#95 = AXIS2_PLACEMENT_3D ( 'NONE', #136, #135, #131 ) ;
#96 = AXIS2_PLACEMENT_3D ( 'NONE', #132, #133, #128 ) ;
#97 = LENGTH_MEASURE_WITH_UNIT ( LENGTH_MEASURE( 0.02539999999999999900 ), #119 );
#98 = PRODUCT_DEFINITION_FORMATION_WITH_SPECIFIED_SOURCE ( 'ANY', '', #52, .NOT_KNOWN. ) ;
#99 = AXIS2_PLACEMENT_3D ( 'NONE', #138, #139, #134 ) ;
#100 = FACE_OUTER_BOUND ( 'NONE', #47, .T. ) ;
#101 = SHAPE_DEFINITION_REPRESENTATION ( #5, #4 ) ;
#102 =( NAMED_UNIT ( * ) SI_UNIT ( $, .STERADIAN. ) SOLID_ANGLE_UNIT ( ) );
#103 =( NAMED_UNIT ( * ) PLANE_ANGLE_UNIT ( ) SI_UNIT ( $, .RADIAN. ) );
#104 =( CONVERSION_BASED_UNIT ( 'INCH', #86 ) LENGTH_UNIT ( ) NAMED_UNIT ( #51 ) );
#105 =( LENGTH_UNIT ( ) NAMED_UNIT ( * ) SI_UNIT ( $, .METRE. ) );
#106 = PRESENTATION_STYLE_ASSIGNMENT (( #107 ) ) ;
#107 = SURFACE_STYLE_USAGE ( .BOTH. , #108 ) ;
#108 = SURFACE_SIDE_STYLE ('',( #109 ) ) ;
#109 = SURFACE_STYLE_FILL_AREA ( #110 ) ;
#110 = FILL_AREA_STYLE ('',( #111 ) ) ;
#111 = FILL_AREA_STYLE_COLOUR ( '', #17 ) ;
#112 = APPLICATION_PROTOCOL_DEFINITION ( 'draft international standard', 'automotive_design', 1998, #83 ) ;
#113 = APPLICATION_PROTOCOL_DEFINITION ( 'draft international standard', 'automotive_design', 1998, #84 ) ;
#114 = PRODUCT_CONTEXT ( 'NONE', #83, 'mechanical' ) ;
#115 = DIRECTION ( 'NONE',  ( 1.000000000000000000, 0.0000000000000000000, 0.0000000000000000000 ) ) ;
#116 =( NAMED_UNIT ( * ) SI_UNIT ( $, .STERADIAN. ) SOLID_ANGLE_UNIT ( ) );
#117 =( NAMED_UNIT ( * ) PLANE_ANGLE_UNIT ( ) SI_UNIT ( $, .RADIAN. ) );
#118 =( CONVERSION_BASED_UNIT ( 'INCH', #97 ) LENGTH_UNIT ( ) NAMED_UNIT ( #53 ) );
#119 =( LENGTH_UNIT ( ) NAMED_UNIT ( * ) SI_UNIT ( $, .METRE. ) );
#120 = CARTESIAN_POINT ( 'NONE',  ( -0.5000000000000000000, 0.0000000000000000000, 0.0000000000000000000 ) ) ;
#121 = CARTESIAN_POINT ( 'NONE',  ( 0.5000000000000000000, 6.123233995736766000E-017, 0.5000000000000000000 ) ) ;
#122 = CARTESIAN_POINT ( 'NONE',  ( -0.5000000000000000000, 0.0000000000000000000, 0.5000000000000000000 ) ) ;
#123 = CARTESIAN_POINT ( 'NONE',  ( 2.000000000000000000, 2.449293598294706400E-016, 0.5000000000000000000 ) ) ;
#124 = CARTESIAN_POINT ( 'NONE',  ( -2.000000000000000000, 0.0000000000000000000, 0.0000000000000000000 ) ) ;
#125 = CARTESIAN_POINT ( 'NONE',  ( 0.5000000000000000000, 6.123233995736766000E-017, 0.0000000000000000000 ) ) ;
#126 = DIRECTION ( 'NONE',  ( 0.0000000000000000000, 0.0000000000000000000, 1.000000000000000000 ) ) ;
#127 = CARTESIAN_POINT ( 'NONE',  ( 0.0000000000000000000, 0.0000000000000000000, 0.0000000000000000000 ) ) ;
#128 = DIRECTION ( 'NONE',  ( -1.000000000000000000, 0.0000000000000000000, 0.0000000000000000000 ) ) ;
#129 = CARTESIAN_POINT ( 'NONE',  ( -2.000000000000000000, 0.0000000000000000000, 0.5000000000000000000 ) ) ;
#130 = CARTESIAN_POINT ( 'NONE',  ( 2.000000000000000000, 2.449293598294706400E-016, 0.0000000000000000000 ) ) ;
#131 = DIRECTION ( 'NONE',  ( -1.000000000000000000, 0.0000000000000000000, 0.0000000000000000000 ) ) ;
#132 = CARTESIAN_POINT ( 'NONE',  ( 0.0000000000000000000, 0.0000000000000000000, 0.5000000000000000000 ) ) ;
#133 = DIRECTION ( 'NONE',  ( -0.0000000000000000000, -0.0000000000000000000, -1.000000000000000000 ) ) ;
#134 = DIRECTION ( 'NONE',  ( 1.000000000000000000, 0.0000000000000000000, -0.0000000000000000000 ) ) ;
#135 = DIRECTION ( 'NONE',  ( -0.0000000000000000000, -0.0000000000000000000, -1.000000000000000000 ) ) ;
#136 = CARTESIAN_POINT ( 'NONE',  ( 0.0000000000000000000, 0.0000000000000000000, 0.5000000000000000000 ) ) ;
#137 = PLANE ( 'NONE',  #99 ) ;
#138 = CARTESIAN_POINT ( 'NONE',  ( 0.0000000000000000000, 0.0000000000000000000, 0.5000000000000000000 ) ) ;
#139 = DIRECTION ( 'NONE',  ( 0.0000000000000000000, 0.0000000000000000000, 1.000000000000000000 ) ) ;
#140 = DIRECTION ( 'NONE',  ( 1.000000000000000000, 0.0000000000000000000, -0.0000000000000000000 ) ) ;
#141 = DIRECTION ( 'NONE',  ( 0.0000000000000000000, 0.0000000000000000000, 1.000000000000000000 ) ) ;
#142 = CARTESIAN_POINT ( 'NONE',  ( 0.0000000000000000000, 0.0000000000000000000, 0.0000000000000000000 ) ) ;
#143 = PLANE ( 'NONE',  #85 ) ;
#144 = DIRECTION ( 'NONE',  ( -1.000000000000000000, 0.0000000000000000000, 0.0000000000000000000 ) ) ;
#145 = DIRECTION ( 'NONE',  ( -0.0000000000000000000, -0.0000000000000000000, -1.000000000000000000 ) ) ;
#146 = CARTESIAN_POINT ( 'NONE',  ( 0.0000000000000000000, 0.0000000000000000000, 0.5000000000000000000 ) ) ;
#147 = DIRECTION ( 'NONE',  ( 1.000000000000000000, 0.0000000000000000000, 0.0000000000000000000 ) ) ;
#148 = DIRECTION ( 'NONE',  ( 0.0000000000000000000, 0.0000000000000000000, 1.000000000000000000 ) ) ;
#149 = CARTESIAN_POINT ( 'NONE',  ( 0.0000000000000000000, 0.0000000000000000000, 0.5000000000000000000 ) ) ;
#150 = DIRECTION ( 'NONE',  ( 1.000000000000000000, 0.0000000000000000000, 0.0000000000000000000 ) ) ;
#151 = DIRECTION ( 'NONE',  ( 0.0000000000000000000, 0.0000000000000000000, 1.000000000000000000 ) ) ;
#152 = DIRECTION ( 'NONE',  ( -0.0000000000000000000, -0.0000000000000000000, -1.000000000000000000 ) ) ;
#153 = CARTESIAN_POINT ( 'NONE',  ( -2.000000000000000000, 0.0000000000000000000, 0.5000000000000000000 ) ) ;
#154 = LINE ( 'NONE', #153, #63 ) ;
#155 = CARTESIAN_POINT ( 'NONE',  ( 0.0000000000000000000, 0.0000000000000000000, 0.0000000000000000000 ) ) ;
#156 = DIRECTION ( 'NONE',  ( 1.000000000000000000, 0.0000000000000000000, 0.0000000000000000000 ) ) ;
#157 = DIRECTION ( 'NONE',  ( 0.0000000000000000000, 0.0000000000000000000, 1.000000000000000000 ) ) ;
#158 = DIRECTION ( 'NONE',  ( -0.0000000000000000000, -0.0000000000000000000, -1.000000000000000000 ) ) ;
#159 = CARTESIAN_POINT ( 'NONE',  ( 2.000000000000000000, 2.449293598294706400E-016, 0.5000000000000000000 ) ) ;
#160 = LINE ( 'NONE', #159, #65 ) ;
#161 = CARTESIAN_POINT ( 'NONE',  ( 0.0000000000000000000, 0.0000000000000000000, 0.5000000000000000000 ) ) ;
#162 = DIRECTION ( 'NONE',  ( 1.000000000000000000, 0.0000000000000000000, 0.0000000000000000000 ) ) ;
#163 = DIRECTION ( 'NONE',  ( 0.0000000000000000000, 0.0000000000000000000, 1.000000000000000000 ) ) ;
#164 = CARTESIAN_POINT ( 'NONE',  ( 0.0000000000000000000, 0.0000000000000000000, 0.0000000000000000000 ) ) ;
#165 = DIRECTION ( 'NONE',  ( 1.000000000000000000, 0.0000000000000000000, 0.0000000000000000000 ) ) ;
#166 = DIRECTION ( 'NONE',  ( 0.0000000000000000000, 0.0000000000000000000, 1.000000000000000000 ) ) ;
#167 = CARTESIAN_POINT ( 'NONE',  ( 0.0000000000000000000, 0.0000000000000000000, 0.0000000000000000000 ) ) ;
#168 = DIRECTION ( 'NONE',  ( 1.000000000000000000, 0.0000000000000000000, 0.0000000000000000000 ) ) ;
#169 = DIRECTION ( 'NONE',  ( 0.0000000000000000000, 0.0000000000000000000, 1.000000000000000000 ) ) ;
#170 = CARTESIAN_POINT ( 'NONE',  ( 0.0000000000000000000, 0.0000000000000000000, 0.0000000000000000000 ) ) ;
#171 = DIRECTION ( 'NONE',  ( 1.000000000000000000, 0.0000000000000000000, 0.0000000000000000000 ) ) ;
#172 = DIRECTION ( 'NONE',  ( 0.0000000000000000000, 0.0000000000000000000, 1.000000000000000000 ) ) ;
#173 = CARTESIAN_POINT ( 'NONE',  ( 0.0000000000000000000, 0.0000000000000000000, 0.5000000000000000000 ) ) ;
#174 = DIRECTION ( 'NONE',  ( 1.000000000000000000, 0.0000000000000000000, 0.0000000000000000000 ) ) ;
#175 = DIRECTION ( 'NONE',  ( 0.0000000000000000000, 0.0000000000000000000, 1.000000000000000000 ) ) ;
#176 = CARTESIAN_POINT ( 'NONE',  ( 0.0000000000000000000, 0.0000000000000000000, 0.5000000000000000000 ) ) ;
#177 = DIRECTION ( 'NONE',  ( -0.0000000000000000000, -0.0000000000000000000, -1.000000000000000000 ) ) ;
#178 = CARTESIAN_POINT ( 'NONE',  ( -0.5000000000000000000, 0.0000000000000000000, 0.5000000000000000000 ) ) ;
#179 = LINE ( 'NONE', #178, #72 ) ;
#180 = DIRECTION ( 'NONE',  ( -1.000000000000000000, 0.0000000000000000000, 0.0000000000000000000 ) ) ;
#181 = DIRECTION ( 'NONE',  ( -0.0000000000000000000, -0.0000000000000000000, -1.000000000000000000 ) ) ;
#182 = CARTESIAN_POINT ( 'NONE',  ( 0.0000000000000000000, 0.0000000000000000000, 0.5000000000000000000 ) ) ;
#183 = DIRECTION ( 'NONE',  ( -0.0000000000000000000, -0.0000000000000000000, -1.000000000000000000 ) ) ;
#184 = CARTESIAN_POINT ( 'NONE',  ( 0.5000000000000000000, 6.123233995736766000E-017, 0.5000000000000000000 ) ) ;
#185 = LINE ( 'NONE', #184, #67 ) ;
#186 =( NAMED_UNIT ( * ) SI_UNIT ( $, .STERADIAN. ) SOLID_ANGLE_UNIT ( ) );
#187 =( NAMED_UNIT ( * ) PLANE_ANGLE_UNIT ( ) SI_UNIT ( $, .RADIAN. ) );
#188 =( CONVERSION_BASED_UNIT ( 'INCH', #15 ) LENGTH_UNIT ( ) NAMED_UNIT ( #50 ) );
#189 =( LENGTH_UNIT ( ) NAMED_UNIT ( * ) SI_UNIT ( $, .METRE. ) );
#190 = PRESENTATION_STYLE_ASSIGNMENT (( #191 ) ) ;
#191 = SURFACE_STYLE_USAGE ( .BOTH. , #192 ) ;
#192 = SURFACE_SIDE_STYLE ('',( #193 ) ) ;
#193 = SURFACE_STYLE_FILL_AREA ( #194 ) ;
#194 = FILL_AREA_STYLE ('',( #195 ) ) ;
#195 = FILL_AREA_STYLE_COLOUR ( '', #36 ) ;
#196 = VERTEX_POINT ( 'NONE', #129 ) ;
#197 = VERTEX_POINT ( 'NONE', #130 ) ;
#198 = VERTEX_POINT ( 'NONE', #125 ) ;
#199 = VERTEX_POINT ( 'NONE', #124 ) ;
#200 = VERTEX_POINT ( 'NONE', #123 ) ;
#201 = VERTEX_POINT ( 'NONE', #122 ) ;
#202 = VERTEX_POINT ( 'NONE', #121 ) ;
#203 = VERTEX_POINT ( 'NONE', #120 ) ;
#204 = ORIENTED_EDGE ( 'NONE', *, *, #22, .F. ) ;
#205 = ORIENTED_EDGE ( 'NONE', *, *, #28, .F. ) ;
#206 = ORIENTED_EDGE ( 'NONE', *, *, #20, .T. ) ;
#207 = ORIENTED_EDGE ( 'NONE', *, *, #22, .T. ) ;
#208 = ORIENTED_EDGE ( 'NONE', *, *, #33, .T. ) ;
#209 = ORIENTED_EDGE ( 'NONE', *, *, #20, .F. ) ;
#210 = ORIENTED_EDGE ( 'NONE', *, *, #24, .T. ) ;
#211 = ORIENTED_EDGE ( 'NONE', *, *, #37, .T. ) ;
#212 = ORIENTED_EDGE ( 'NONE', *, *, #23, .F. ) ;
#213 = ORIENTED_EDGE ( 'NONE', *, *, #25, .T. ) ;
#214 = ORIENTED_EDGE ( 'NONE', *, *, #26, .T. ) ;
#215 = ORIENTED_EDGE ( 'NONE', *, *, #76, .F. ) ;
#216 = ORIENTED_EDGE ( 'NONE', *, *, #30, .F. ) ;
#217 = ORIENTED_EDGE ( 'NONE', *, *, #25, .F. ) ;
#218 = ORIENTED_EDGE ( 'NONE', *, *, #28, .T. ) ;
#219 = ORIENTED_EDGE ( 'NONE', *, *, #33, .F. ) ;
#220 = ORIENTED_EDGE ( 'NONE', *, *, #77, .T. ) ;
#221 = ORIENTED_EDGE ( 'NONE', *, *, #26, .F. ) ;
#222 = ORIENTED_EDGE ( 'NONE', *, *, #24, .F. ) ;
#223 = ORIENTED_EDGE ( 'NONE', *, *, #23, .T. ) ;
ENDSEC;
END-ISO-10303-21;
