ISO-10303-21;
HEADER;
FILE_DESCRIPTION (( 'STEP AP214' ),
    '1' );
FILE_NAME ('H500-4000-2000.step',
    '2012-04-20T20:59:23',
    ( '' ),
    ( '' ),
    'SwSTEP 2.0',
    'SolidWorks 2012',
    '' );
FILE_SCHEMA (( 'AUTOMOTIVE_DESIGN' ));
ENDSEC;

DATA;
#1 = UNCERTAINTY_MEASURE_WITH_UNIT (LENGTH_MEASURE( 1.000000000000000100E-005 ), #47, 'distance_accuracy_value', 'NONE');
#2 = CARTESIAN_POINT ( 'NONE',  ( 0.0000000000000000000, 0.0000000000000000000, 0.5000000000000000000 ) ) ;
#3 = DIRECTION ( 'NONE',  ( -1.000000000000000000, 0.0000000000000000000, 0.0000000000000000000 ) ) ;
#4 = DIRECTION ( 'NONE',  ( -0.0000000000000000000, -0.0000000000000000000, -1.000000000000000000 ) ) ;
#5 = CARTESIAN_POINT ( 'NONE',  ( 0.0000000000000000000, 0.0000000000000000000, 0.5000000000000000000 ) ) ;
#6 = DIRECTION ( 'NONE',  ( 1.000000000000000000, 0.0000000000000000000, 0.0000000000000000000 ) ) ;
#7 = DIRECTION ( 'NONE',  ( 0.0000000000000000000, 0.0000000000000000000, 1.000000000000000000 ) ) ;
#8 = CARTESIAN_POINT ( 'NONE',  ( 0.0000000000000000000, 0.0000000000000000000, 0.0000000000000000000 ) ) ;
#9 = DIRECTION ( 'NONE',  ( 1.000000000000000000, 0.0000000000000000000, 0.0000000000000000000 ) ) ;
#10 = DIRECTION ( 'NONE',  ( 0.0000000000000000000, 0.0000000000000000000, 1.000000000000000000 ) ) ;
#11 = DIRECTION ( 'NONE',  ( -0.0000000000000000000, -0.0000000000000000000, -1.000000000000000000 ) ) ;
#12 = CARTESIAN_POINT ( 'NONE',  ( -2.000000000000000000, 0.0000000000000000000, 0.5000000000000000000 ) ) ;
#13 = LINE ( 'NONE', #12, #131 ) ;
#14 = CARTESIAN_POINT ( 'NONE',  ( 0.0000000000000000000, 0.0000000000000000000, 0.5000000000000000000 ) ) ;
#15 = DIRECTION ( 'NONE',  ( 1.000000000000000000, 0.0000000000000000000, 0.0000000000000000000 ) ) ;
#16 = DIRECTION ( 'NONE',  ( 0.0000000000000000000, 0.0000000000000000000, 1.000000000000000000 ) ) ;
#17 = DIRECTION ( 'NONE',  ( -0.0000000000000000000, -0.0000000000000000000, -1.000000000000000000 ) ) ;
#18 = CARTESIAN_POINT ( 'NONE',  ( 1.000000000000000000, 1.224646799147353200E-016, 0.5000000000000000000 ) ) ;
#19 = LINE ( 'NONE', #18, #129 ) ;
#20 = CARTESIAN_POINT ( 'NONE',  ( 0.0000000000000000000, 0.0000000000000000000, 0.5000000000000000000 ) ) ;
#21 = DIRECTION ( 'NONE',  ( 1.000000000000000000, 0.0000000000000000000, 0.0000000000000000000 ) ) ;
#22 = DIRECTION ( 'NONE',  ( 0.0000000000000000000, 0.0000000000000000000, 1.000000000000000000 ) ) ;
#23 = CARTESIAN_POINT ( 'NONE',  ( 0.0000000000000000000, 0.0000000000000000000, 0.5000000000000000000 ) ) ;
#24 = CARTESIAN_POINT ( 'NONE',  ( 0.0000000000000000000, 0.0000000000000000000, 0.0000000000000000000 ) ) ;
#25 = DIRECTION ( 'NONE',  ( 0.0000000000000000000, 0.0000000000000000000, 1.000000000000000000 ) ) ;
#26 = DIRECTION ( 'NONE',  ( 1.000000000000000000, 0.0000000000000000000, 0.0000000000000000000 ) ) ;
#27 = CARTESIAN_POINT ( 'NONE',  ( 0.0000000000000000000, 0.0000000000000000000, 0.5000000000000000000 ) ) ;
#28 = DIRECTION ( 'NONE',  ( -0.0000000000000000000, -0.0000000000000000000, -1.000000000000000000 ) ) ;
#29 = DIRECTION ( 'NONE',  ( -1.000000000000000000, 0.0000000000000000000, 0.0000000000000000000 ) ) ;
#30 = CARTESIAN_POINT ( 'NONE',  ( 0.0000000000000000000, 0.0000000000000000000, 0.0000000000000000000 ) ) ;
#31 = DIRECTION ( 'NONE',  ( 1.000000000000000000, 0.0000000000000000000, 0.0000000000000000000 ) ) ;
#32 = DIRECTION ( 'NONE',  ( 0.0000000000000000000, 0.0000000000000000000, 1.000000000000000000 ) ) ;
#33 = DIRECTION ( 'NONE',  ( -0.0000000000000000000, -0.0000000000000000000, -1.000000000000000000 ) ) ;
#34 = DIRECTION ( 'NONE',  ( 0.0000000000000000000, 0.0000000000000000000, 1.000000000000000000 ) ) ;
#35 = DIRECTION ( 'NONE',  ( 1.000000000000000000, 0.0000000000000000000, 0.0000000000000000000 ) ) ;
#36 = CARTESIAN_POINT ( 'NONE',  ( -1.000000000000000000, 0.0000000000000000000, 0.5000000000000000000 ) ) ;
#37 = LINE ( 'NONE', #36, #121 ) ;
#38 = DIRECTION ( 'NONE',  ( -0.0000000000000000000, -0.0000000000000000000, -1.000000000000000000 ) ) ;
#39 = CARTESIAN_POINT ( 'NONE',  ( 2.000000000000000000, 2.449293598294706400E-016, 0.5000000000000000000 ) ) ;
#40 = LINE ( 'NONE', #39, #153 ) ;
#41 = CARTESIAN_POINT ( 'NONE',  ( 0.0000000000000000000, 0.0000000000000000000, 0.0000000000000000000 ) ) ;
#42 = DIRECTION ( 'NONE',  ( 1.000000000000000000, 0.0000000000000000000, 0.0000000000000000000 ) ) ;
#43 = DIRECTION ( 'NONE',  ( 0.0000000000000000000, 0.0000000000000000000, 1.000000000000000000 ) ) ;
#44 = CARTESIAN_POINT ( 'NONE',  ( 0.0000000000000000000, 0.0000000000000000000, 0.5000000000000000000 ) ) ;
#45 =( NAMED_UNIT ( * ) SI_UNIT ( $, .STERADIAN. ) SOLID_ANGLE_UNIT ( ) );
#46 =( NAMED_UNIT ( * ) PLANE_ANGLE_UNIT ( ) SI_UNIT ( $, .RADIAN. ) );
#47 =( CONVERSION_BASED_UNIT ( 'INCH', #157 ) LENGTH_UNIT ( ) NAMED_UNIT ( #106 ) );
#48 =( LENGTH_UNIT ( ) NAMED_UNIT ( * ) SI_UNIT ( $, .METRE. ) );
#49 = PRESENTATION_STYLE_ASSIGNMENT (( #50 ) ) ;
#50 = SURFACE_STYLE_USAGE ( .BOTH. , #51 ) ;
#51 = SURFACE_SIDE_STYLE ('',( #52 ) ) ;
#52 = SURFACE_STYLE_FILL_AREA ( #53 ) ;
#53 = FILL_AREA_STYLE ('',( #54 ) ) ;
#54 = FILL_AREA_STYLE_COLOUR ( '', #210 ) ;
#55 = CARTESIAN_POINT ( 'NONE',  ( 2.000000000000000000, 2.449293598294706400E-016, 0.5000000000000000000 ) ) ;
#56 = CARTESIAN_POINT ( 'NONE',  ( 1.000000000000000000, 1.224646799147353200E-016, 0.0000000000000000000 ) ) ;
#57 = CARTESIAN_POINT ( 'NONE',  ( 1.000000000000000000, 1.224646799147353200E-016, 0.5000000000000000000 ) ) ;
#58 = CARTESIAN_POINT ( 'NONE',  ( -1.000000000000000000, 0.0000000000000000000, 0.5000000000000000000 ) ) ;
#59 = CARTESIAN_POINT ( 'NONE',  ( -1.000000000000000000, 0.0000000000000000000, 0.0000000000000000000 ) ) ;
#60 = CARTESIAN_POINT ( 'NONE',  ( -2.000000000000000000, 0.0000000000000000000, 0.0000000000000000000 ) ) ;
#61 = CARTESIAN_POINT ( 'NONE',  ( 2.000000000000000000, 2.449293598294706400E-016, 0.0000000000000000000 ) ) ;
#62 = CARTESIAN_POINT ( 'NONE',  ( -2.000000000000000000, 0.0000000000000000000, 0.5000000000000000000 ) ) ;
#63 = VERTEX_POINT ( 'NONE', #62 ) ;
#64 = VERTEX_POINT ( 'NONE', #61 ) ;
#65 = VERTEX_POINT ( 'NONE', #60 ) ;
#66 = VERTEX_POINT ( 'NONE', #59 ) ;
#67 = VERTEX_POINT ( 'NONE', #58 ) ;
#68 = VERTEX_POINT ( 'NONE', #57 ) ;
#69 = VERTEX_POINT ( 'NONE', #56 ) ;
#70 = VERTEX_POINT ( 'NONE', #55 ) ;
#71 = ORIENTED_EDGE ( 'NONE', *, *, #218, .T. ) ;
#72 = ORIENTED_EDGE ( 'NONE', *, *, #115, .T. ) ;
#73 = ORIENTED_EDGE ( 'NONE', *, *, #197, .T. ) ;
#74 = ORIENTED_EDGE ( 'NONE', *, *, #212, .F. ) ;
#75 = ORIENTED_EDGE ( 'NONE', *, *, #197, .F. ) ;
#76 = ORIENTED_EDGE ( 'NONE', *, *, #212, .T. ) ;
#77 = ORIENTED_EDGE ( 'NONE', *, *, #214, .F. ) ;
#78 = ORIENTED_EDGE ( 'NONE', *, *, #215, .F. ) ;
#79 = ORIENTED_EDGE ( 'NONE', *, *, #118, .T. ) ;
#80 = ORIENTED_EDGE ( 'NONE', *, *, #117, .T. ) ;
#81 = ORIENTED_EDGE ( 'NONE', *, *, #216, .F. ) ;
#82 = ORIENTED_EDGE ( 'NONE', *, *, #213, .F. ) ;
#83 = ORIENTED_EDGE ( 'NONE', *, *, #117, .F. ) ;
#84 = ORIENTED_EDGE ( 'NONE', *, *, #218, .F. ) ;
#85 = ORIENTED_EDGE ( 'NONE', *, *, #119, .T. ) ;
#86 = ORIENTED_EDGE ( 'NONE', *, *, #217, .F. ) ;
#87 = ORIENTED_EDGE ( 'NONE', *, *, #216, .T. ) ;
#88 = ORIENTED_EDGE ( 'NONE', *, *, #213, .T. ) ;
#89 = ORIENTED_EDGE ( 'NONE', *, *, #217, .T. ) ;
#90 = ORIENTED_EDGE ( 'NONE', *, *, #215, .T. ) ;
#91 = ORIENTED_EDGE ( 'NONE', *, *, #119, .F. ) ;
#92 = ORIENTED_EDGE ( 'NONE', *, *, #214, .T. ) ;
#93 = ORIENTED_EDGE ( 'NONE', *, *, #118, .F. ) ;
#94 = ORIENTED_EDGE ( 'NONE', *, *, #115, .F. ) ;
#95 = EDGE_LOOP ( 'NONE', ( #85, #71 ) ) ;
#96 = EDGE_LOOP ( 'NONE', ( #83, #78, #87, #76 ) ) ;
#97 = EDGE_LOOP ( 'NONE', ( #77, #89, #79, #84 ) ) ;
#98 = EDGE_LOOP ( 'NONE', ( #90, #72 ) ) ;
#99 = EDGE_LOOP ( 'NONE', ( #88, #92, #91, #93 ) ) ;
#100 = EDGE_LOOP ( 'NONE', ( #94, #80, #73, #81 ) ) ;
#101 = EDGE_LOOP ( 'NONE', ( #82, #86 ) ) ;
#102 = EDGE_LOOP ( 'NONE', ( #74, #75 ) ) ;
#103 =( GEOMETRIC_REPRESENTATION_CONTEXT ( 3 ) GLOBAL_UNCERTAINTY_ASSIGNED_CONTEXT ( ( #113 ) ) GLOBAL_UNIT_ASSIGNED_CONTEXT ( ( #166, #171, #177 ) ) REPRESENTATION_CONTEXT ( 'NONE', 'WORKASPACE' ) );
#104 =( GEOMETRIC_REPRESENTATION_CONTEXT ( 3 ) GLOBAL_UNCERTAINTY_ASSIGNED_CONTEXT ( ( #112 ) ) GLOBAL_UNIT_ASSIGNED_CONTEXT ( ( #187, #183, #178 ) ) REPRESENTATION_CONTEXT ( 'NONE', 'WORKASPACE' ) );
#105 = DIMENSIONAL_EXPONENTS ( 1.000000000000000000, 0.0000000000000000000, 0.0000000000000000000, 0.0000000000000000000, 0.0000000000000000000, 0.0000000000000000000, 0.0000000000000000000 ) ;
#106 = DIMENSIONAL_EXPONENTS ( 1.000000000000000000, 0.0000000000000000000, 0.0000000000000000000, 0.0000000000000000000, 0.0000000000000000000, 0.0000000000000000000, 0.0000000000000000000 ) ;
#107 = DIMENSIONAL_EXPONENTS ( 1.000000000000000000, 0.0000000000000000000, 0.0000000000000000000, 0.0000000000000000000, 0.0000000000000000000, 0.0000000000000000000, 0.0000000000000000000 ) ;
#108 = PRODUCT ( 'H500-4000-2000', 'H500-4000-2000', '', ( #164 ) ) ;
#109 = PRODUCT_DEFINITION_SHAPE ( 'NONE', 'NONE',  #202 ) ;
#110 = MANIFOLD_SOLID_BREP ( 'Boss-Extrude1', #158 ) ;
#111 = PRODUCT_DEFINITION_CONTEXT ( 'detailed design', #204, 'design' ) ;
#112 = UNCERTAINTY_MEASURE_WITH_UNIT (LENGTH_MEASURE( 1.000000000000000100E-005 ), #187, 'distance_accuracy_value', 'NONE');
#113 = UNCERTAINTY_MEASURE_WITH_UNIT (LENGTH_MEASURE( 1.000000000000000100E-005 ), #166, 'distance_accuracy_value', 'NONE');
#114 = ADVANCED_BREP_SHAPE_REPRESENTATION ( 'H500-4000-2000', ( #110, #150 ), #104 ) ;
#115 = EDGE_CURVE ( 'NONE', #70, #63, #208, .T. ) ;
#116 = CIRCLE ( 'NONE', #161, 2.000000000000000000 ) ;
#117 = EDGE_CURVE ( 'NONE', #70, #64, #40, .T. ) ;
#118 = EDGE_CURVE ( 'NONE', #67, #66, #37, .T. ) ;
#119 = EDGE_CURVE ( 'NONE', #66, #69, #207, .T. ) ;
#120 = AXIS2_PLACEMENT_3D ( 'NONE', #41, #34, #35 ) ;
#121 = VECTOR ( 'NONE', #33, 39.37007874015748100 ) ;
#122 = AXIS2_PLACEMENT_3D ( 'NONE', #30, #32, #31 ) ;
#123 = AXIS2_PLACEMENT_3D ( 'NONE', #27, #28, #29 ) ;
#124 = CYLINDRICAL_SURFACE ( 'NONE', #123, 1.000000000000000000 ) ;
#125 = AXIS2_PLACEMENT_3D ( 'NONE', #8, #7, #6 ) ;
#126 = AXIS2_PLACEMENT_3D ( 'NONE', #23, #22, #21 ) ;
#127 = AXIS2_PLACEMENT_3D ( 'NONE', #20, #16, #15 ) ;
#128 = AXIS2_PLACEMENT_3D ( 'NONE', #185, #182, #184 ) ;
#129 = VECTOR ( 'NONE', #17, 39.37007874015748100 ) ;
#130 = FACE_OUTER_BOUND ( 'NONE', #97, .T. ) ;
#131 = VECTOR ( 'NONE', #11, 39.37007874015748100 ) ;
#132 = AXIS2_PLACEMENT_3D ( 'NONE', #5, #4, #3 ) ;
#133 = FACE_OUTER_BOUND ( 'NONE', #96, .T. ) ;
#134 = CYLINDRICAL_SURFACE ( 'NONE', #132, 1.000000000000000000 ) ;
#135 = FACE_OUTER_BOUND ( 'NONE', #102, .T. ) ;
#136 = AXIS2_PLACEMENT_3D ( 'NONE', #2, #196, #195 ) ;
#137 = CYLINDRICAL_SURFACE ( 'NONE', #136, 2.000000000000000000 ) ;
#138 = FACE_BOUND ( 'NONE', #101, .T. ) ;
#139 = FACE_BOUND ( 'NONE', #95, .T. ) ;
#140 = FACE_OUTER_BOUND ( 'NONE', #98, .T. ) ;
#141 = AXIS2_PLACEMENT_3D ( 'NONE', #193, #192, #191 ) ;
#142 = FACE_OUTER_BOUND ( 'NONE', #100, .T. ) ;
#143 = AXIS2_PLACEMENT_3D ( 'NONE', #189, #188, #186 ) ;
#144 = CYLINDRICAL_SURFACE ( 'NONE', #128, 2.000000000000000000 ) ;
#145 = LENGTH_MEASURE_WITH_UNIT ( LENGTH_MEASURE( 0.02539999999999999900 ), #180 );
#146 = STYLED_ITEM ( 'NONE', ( #172 ), #114 ) ;
#147 = PRESENTATION_LAYER_ASSIGNMENT (  '', '', ( #146 ) ) ;
#148 = MECHANICAL_DESIGN_GEOMETRIC_PRESENTATION_REPRESENTATION (  '', ( #146 ), #103 ) ;
#149 = LENGTH_MEASURE_WITH_UNIT ( LENGTH_MEASURE( 0.02539999999999999900 ), #167 );
#150 = AXIS2_PLACEMENT_3D ( 'NONE', #168, #181, #179 ) ;
#151 = PRODUCT_DEFINITION_FORMATION_WITH_SPECIFIED_SOURCE ( 'ANY', '', #108, .NOT_KNOWN. ) ;
#152 = AXIS2_PLACEMENT_3D ( 'NONE', #44, #43, #42 ) ;
#153 = VECTOR ( 'NONE', #38, 39.37007874015748100 ) ;
#154 = PRESENTATION_LAYER_ASSIGNMENT (  '', '', ( #156 ) ) ;
#155 = FACE_OUTER_BOUND ( 'NONE', #99, .T. ) ;
#156 = STYLED_ITEM ( 'NONE', ( #49 ), #110 ) ;
#157 = LENGTH_MEASURE_WITH_UNIT ( LENGTH_MEASURE( 0.02539999999999999900 ), #48 );
#158 = CLOSED_SHELL ( 'NONE', ( #205, #223, #222, #221, #220, #219 ) ) ;
#159 = MECHANICAL_DESIGN_GEOMETRIC_PRESENTATION_REPRESENTATION (  '', ( #156 ), #162 ) ;
#160 = AXIS2_PLACEMENT_3D ( 'NONE', #14, #10, #9 ) ;
#161 = AXIS2_PLACEMENT_3D ( 'NONE', #24, #25, #26 ) ;
#162 =( GEOMETRIC_REPRESENTATION_CONTEXT ( 3 ) GLOBAL_UNCERTAINTY_ASSIGNED_CONTEXT ( ( #1 ) ) GLOBAL_UNIT_ASSIGNED_CONTEXT ( ( #47, #46, #45 ) ) REPRESENTATION_CONTEXT ( 'NONE', 'WORKASPACE' ) );
#163 = APPLICATION_PROTOCOL_DEFINITION ( 'draft international standard', 'automotive_design', 1998, #204 ) ;
#164 = PRODUCT_CONTEXT ( 'NONE', #203, 'mechanical' ) ;
#165 = APPLICATION_PROTOCOL_DEFINITION ( 'draft international standard', 'automotive_design', 1998, #203 ) ;
#166 =( CONVERSION_BASED_UNIT ( 'INCH', #149 ) LENGTH_UNIT ( ) NAMED_UNIT ( #107 ) );
#167 =( LENGTH_UNIT ( ) NAMED_UNIT ( * ) SI_UNIT ( $, .METRE. ) );
#168 = CARTESIAN_POINT ( 'NONE',  ( 0.0000000000000000000, 0.0000000000000000000, 0.0000000000000000000 ) ) ;
#169 = SURFACE_STYLE_FILL_AREA ( #170 ) ;
#170 = FILL_AREA_STYLE ('',( #175 ) ) ;
#171 =( NAMED_UNIT ( * ) PLANE_ANGLE_UNIT ( ) SI_UNIT ( $, .RADIAN. ) );
#172 = PRESENTATION_STYLE_ASSIGNMENT (( #173 ) ) ;
#173 = SURFACE_STYLE_USAGE ( .BOTH. , #174 ) ;
#174 = SURFACE_SIDE_STYLE ('',( #169 ) ) ;
#175 = FILL_AREA_STYLE_COLOUR ( '', #201 ) ;
#176 = SHAPE_DEFINITION_REPRESENTATION ( #109, #114 ) ;
#177 =( NAMED_UNIT ( * ) SI_UNIT ( $, .STERADIAN. ) SOLID_ANGLE_UNIT ( ) );
#178 =( NAMED_UNIT ( * ) SI_UNIT ( $, .STERADIAN. ) SOLID_ANGLE_UNIT ( ) );
#179 = DIRECTION ( 'NONE',  ( 1.000000000000000000, 0.0000000000000000000, 0.0000000000000000000 ) ) ;
#180 =( LENGTH_UNIT ( ) NAMED_UNIT ( * ) SI_UNIT ( $, .METRE. ) );
#181 = DIRECTION ( 'NONE',  ( 0.0000000000000000000, 0.0000000000000000000, 1.000000000000000000 ) ) ;
#182 = DIRECTION ( 'NONE',  ( -0.0000000000000000000, -0.0000000000000000000, -1.000000000000000000 ) ) ;
#183 =( NAMED_UNIT ( * ) PLANE_ANGLE_UNIT ( ) SI_UNIT ( $, .RADIAN. ) );
#184 = DIRECTION ( 'NONE',  ( -1.000000000000000000, 0.0000000000000000000, 0.0000000000000000000 ) ) ;
#185 = CARTESIAN_POINT ( 'NONE',  ( 0.0000000000000000000, 0.0000000000000000000, 0.5000000000000000000 ) ) ;
#186 = DIRECTION ( 'NONE',  ( 1.000000000000000000, 0.0000000000000000000, -0.0000000000000000000 ) ) ;
#187 =( CONVERSION_BASED_UNIT ( 'INCH', #145 ) LENGTH_UNIT ( ) NAMED_UNIT ( #105 ) );
#188 = DIRECTION ( 'NONE',  ( 0.0000000000000000000, 0.0000000000000000000, 1.000000000000000000 ) ) ;
#189 = CARTESIAN_POINT ( 'NONE',  ( 0.0000000000000000000, 0.0000000000000000000, 0.5000000000000000000 ) ) ;
#190 = PLANE ( 'NONE',  #143 ) ;
#191 = DIRECTION ( 'NONE',  ( 1.000000000000000000, 0.0000000000000000000, -0.0000000000000000000 ) ) ;
#192 = DIRECTION ( 'NONE',  ( 0.0000000000000000000, 0.0000000000000000000, 1.000000000000000000 ) ) ;
#193 = CARTESIAN_POINT ( 'NONE',  ( 0.0000000000000000000, 0.0000000000000000000, 0.0000000000000000000 ) ) ;
#194 = PLANE ( 'NONE',  #141 ) ;
#195 = DIRECTION ( 'NONE',  ( -1.000000000000000000, 0.0000000000000000000, 0.0000000000000000000 ) ) ;
#196 = DIRECTION ( 'NONE',  ( -0.0000000000000000000, -0.0000000000000000000, -1.000000000000000000 ) ) ;
#197 = EDGE_CURVE ( 'NONE', #64, #65, #206, .T. ) ;
#198 = CIRCLE ( 'NONE', #127, 2.000000000000000000 ) ;
#199 = CIRCLE ( 'NONE', #160, 1.000000000000000000 ) ;
#200 = CIRCLE ( 'NONE', #125, 1.000000000000000000 ) ;
#201 = COLOUR_RGB ( '',0.5686274509803921400, 0.5686274509803921400, 0.5882352941176470800 ) ;
#202 = PRODUCT_DEFINITION ( 'UNKNOWN', '', #151, #111 ) ;
#203 = APPLICATION_CONTEXT ( 'automotive_design' ) ;
#204 = APPLICATION_CONTEXT ( 'automotive_design' ) ;
#205 = ADVANCED_FACE ( 'NONE', ( #155 ), #124, .F. ) ;
#206 = CIRCLE ( 'NONE', #122, 2.000000000000000000 ) ;
#207 = CIRCLE ( 'NONE', #120, 1.000000000000000000 ) ;
#208 = CIRCLE ( 'NONE', #152, 2.000000000000000000 ) ;
#209 = CIRCLE ( 'NONE', #126, 1.000000000000000000 ) ;
#210 = COLOUR_RGB ( '',0.5686274509803921400, 0.5686274509803921400, 0.5882352941176470800 ) ;
#211 = PRODUCT_RELATED_PRODUCT_CATEGORY ( 'part', '', ( #108 ) ) ;
#212 = EDGE_CURVE ( 'NONE', #65, #64, #116, .T. ) ;
#213 = EDGE_CURVE ( 'NONE', #67, #68, #209, .T. ) ;
#214 = EDGE_CURVE ( 'NONE', #68, #69, #19, .T. ) ;
#215 = EDGE_CURVE ( 'NONE', #63, #70, #198, .T. ) ;
#216 = EDGE_CURVE ( 'NONE', #63, #65, #13, .T. ) ;
#217 = EDGE_CURVE ( 'NONE', #68, #67, #199, .T. ) ;
#218 = EDGE_CURVE ( 'NONE', #69, #66, #200, .T. ) ;
#219 = ADVANCED_FACE ( 'NONE', ( #130 ), #134, .F. ) ;
#220 = ADVANCED_FACE ( 'NONE', ( #133 ), #137, .T. ) ;
#221 = ADVANCED_FACE ( 'NONE', ( #135, #139 ), #194, .F. ) ;
#222 = ADVANCED_FACE ( 'NONE', ( #140, #138 ), #190, .T. ) ;
#223 = ADVANCED_FACE ( 'NONE', ( #142 ), #144, .T. ) ;
ENDSEC;
END-ISO-10303-21;
