ISO-10303-21;
HEADER;
FILE_DESCRIPTION (( 'STEP AP214' ),
    '1' );
FILE_NAME ('H750L.step',
    '2012-04-20T20:59:30',
    ( '' ),
    ( '' ),
    'SwSTEP 2.0',
    'SolidWorks 2012',
    '' );
FILE_SCHEMA (( 'AUTOMOTIVE_DESIGN' ));
ENDSEC;

DATA;
#1 = AXIS2_PLACEMENT_3D ( 'NONE', #68, #67, #66 ) ;
#2 = AXIS2_PLACEMENT_3D ( 'NONE', #65, #64, #63 ) ;
#3 = AXIS2_PLACEMENT_3D ( 'NONE', #54, #50, #51 ) ;
#4 = AXIS2_PLACEMENT_3D ( 'NONE', #62, #56, #57 ) ;
#5 = VECTOR ( 'NONE', #59, 39.37007874015748100 ) ;
#6 = AXIS2_PLACEMENT_3D ( 'NONE', #58, #53, #55 ) ;
#7 = AXIS2_PLACEMENT_3D ( 'NONE', #52, #45, #44 ) ;
#8 = FACE_OUTER_BOUND ( 'NONE', #126, .T. ) ;
#9 = VECTOR ( 'NONE', #49, 39.37007874015748100 ) ;
#10 = AXIS2_PLACEMENT_3D ( 'NONE', #40, #33, #184 ) ;
#11 = VECTOR ( 'NONE', #37, 39.37007874015748100 ) ;
#12 = FACE_OUTER_BOUND ( 'NONE', #125, .T. ) ;
#13 = VECTOR ( 'NONE', #34, 39.37007874015748100 ) ;
#14 = CYLINDRICAL_SURFACE ( 'NONE', #10, 0.3799999999999999500 ) ;
#15 = FACE_OUTER_BOUND ( 'NONE', #131, .T. ) ;
#16 = AXIS2_PLACEMENT_3D ( 'NONE', #178, #179, #176 ) ;
#17 = CYLINDRICAL_SURFACE ( 'NONE', #16, 0.7499999999999998900 ) ;
#18 = FACE_BOUND ( 'NONE', #130, .T. ) ;
#19 = FACE_BOUND ( 'NONE', #46, .T. ) ;
#20 = FACE_OUTER_BOUND ( 'NONE', #127, .T. ) ;
#21 = AXIS2_PLACEMENT_3D ( 'NONE', #162, #160, #191 ) ;
#22 = AXIS2_PLACEMENT_3D ( 'NONE', #186, #185, #183 ) ;
#23 = FACE_OUTER_BOUND ( 'NONE', #129, .T. ) ;
#24 = AXIS2_PLACEMENT_3D ( 'NONE', #189, #188, #187 ) ;
#25 = CYLINDRICAL_SURFACE ( 'NONE', #22, 0.7499999999999998900 ) ;
#26 = LENGTH_MEASURE_WITH_UNIT ( LENGTH_MEASURE( 0.02539999999999999900 ), #182 );
#27 = STYLED_ITEM ( 'NONE', ( #169 ), #137 ) ;
#28 = PRESENTATION_LAYER_ASSIGNMENT (  '', '', ( #27 ) ) ;
#29 = MECHANICAL_DESIGN_GEOMETRIC_PRESENTATION_REPRESENTATION (  '', ( #27 ), #209 ) ;
#30 = LENGTH_MEASURE_WITH_UNIT ( LENGTH_MEASURE( 0.02539999999999999900 ), #168 );
#31 = AXIS2_PLACEMENT_3D ( 'NONE', #161, #159, #156 ) ;
#32 = PRODUCT_DEFINITION_FORMATION_WITH_SPECIFIED_SOURCE ( 'ANY', '', #134, .NOT_KNOWN. ) ;
#33 = DIRECTION ( 'NONE',  ( -0.0000000000000000000, -0.0000000000000000000, -1.000000000000000000 ) ) ;
#34 = DIRECTION ( 'NONE',  ( -0.0000000000000000000, -0.0000000000000000000, -1.000000000000000000 ) ) ;
#35 = CARTESIAN_POINT ( 'NONE',  ( 0.7499999999999998900, 9.184850993605146000E-017, 0.7500000000000001100 ) ) ;
#36 = LINE ( 'NONE', #35, #13 ) ;
#37 = DIRECTION ( 'NONE',  ( -0.0000000000000000000, -0.0000000000000000000, -1.000000000000000000 ) ) ;
#38 = CARTESIAN_POINT ( 'NONE',  ( 0.3799999999999999500, 4.653657836759941100E-017, 0.7500000000000001100 ) ) ;
#39 = LINE ( 'NONE', #38, #11 ) ;
#40 = CARTESIAN_POINT ( 'NONE',  ( 0.0000000000000000000, 0.0000000000000000000, 0.7500000000000001100 ) ) ;
#41 = DIRECTION ( 'NONE',  ( 1.000000000000000000, 0.0000000000000000000, 0.0000000000000000000 ) ) ;
#42 = DIRECTION ( 'NONE',  ( 0.0000000000000000000, 0.0000000000000000000, 1.000000000000000000 ) ) ;
#43 = CARTESIAN_POINT ( 'NONE',  ( 0.0000000000000000000, 0.0000000000000000000, 0.7500000000000001100 ) ) ;
#44 = DIRECTION ( 'NONE',  ( 1.000000000000000000, 0.0000000000000000000, 0.0000000000000000000 ) ) ;
#45 = DIRECTION ( 'NONE',  ( 0.0000000000000000000, 0.0000000000000000000, 1.000000000000000000 ) ) ;
#46 = EDGE_LOOP ( 'NONE', ( #107, #106 ) ) ;
#47 = LINE ( 'NONE', #48, #9 ) ;
#48 = CARTESIAN_POINT ( 'NONE',  ( -0.7499999999999998900, 0.0000000000000000000, 0.7500000000000001100 ) ) ;
#49 = DIRECTION ( 'NONE',  ( -0.0000000000000000000, -0.0000000000000000000, -1.000000000000000000 ) ) ;
#50 = DIRECTION ( 'NONE',  ( 0.0000000000000000000, 0.0000000000000000000, 1.000000000000000000 ) ) ;
#51 = DIRECTION ( 'NONE',  ( 1.000000000000000000, 0.0000000000000000000, 0.0000000000000000000 ) ) ;
#52 = CARTESIAN_POINT ( 'NONE',  ( 0.0000000000000000000, 0.0000000000000000000, 0.7500000000000001100 ) ) ;
#53 = DIRECTION ( 'NONE',  ( 0.0000000000000000000, 0.0000000000000000000, 1.000000000000000000 ) ) ;
#54 = CARTESIAN_POINT ( 'NONE',  ( 0.0000000000000000000, 0.0000000000000000000, 0.0000000000000000000 ) ) ;
#55 = DIRECTION ( 'NONE',  ( 1.000000000000000000, 0.0000000000000000000, 0.0000000000000000000 ) ) ;
#56 = DIRECTION ( 'NONE',  ( 0.0000000000000000000, 0.0000000000000000000, 1.000000000000000000 ) ) ;
#57 = DIRECTION ( 'NONE',  ( 1.000000000000000000, 0.0000000000000000000, 0.0000000000000000000 ) ) ;
#58 = CARTESIAN_POINT ( 'NONE',  ( 0.0000000000000000000, 0.0000000000000000000, 0.0000000000000000000 ) ) ;
#59 = DIRECTION ( 'NONE',  ( -0.0000000000000000000, -0.0000000000000000000, -1.000000000000000000 ) ) ;
#60 = CARTESIAN_POINT ( 'NONE',  ( -0.3799999999999999500, 0.0000000000000000000, 0.7500000000000001100 ) ) ;
#61 = LINE ( 'NONE', #60, #5 ) ;
#62 = CARTESIAN_POINT ( 'NONE',  ( 0.0000000000000000000, 0.0000000000000000000, 0.0000000000000000000 ) ) ;
#63 = DIRECTION ( 'NONE',  ( 1.000000000000000000, 0.0000000000000000000, 0.0000000000000000000 ) ) ;
#64 = DIRECTION ( 'NONE',  ( 0.0000000000000000000, 0.0000000000000000000, 1.000000000000000000 ) ) ;
#65 = CARTESIAN_POINT ( 'NONE',  ( 0.0000000000000000000, 0.0000000000000000000, 0.7500000000000001100 ) ) ;
#66 = DIRECTION ( 'NONE',  ( 1.000000000000000000, 0.0000000000000000000, 0.0000000000000000000 ) ) ;
#67 = DIRECTION ( 'NONE',  ( 0.0000000000000000000, 0.0000000000000000000, 1.000000000000000000 ) ) ;
#68 = CARTESIAN_POINT ( 'NONE',  ( 0.0000000000000000000, 0.0000000000000000000, 0.0000000000000000000 ) ) ;
#69 = DIRECTION ( 'NONE',  ( 1.000000000000000000, 0.0000000000000000000, 0.0000000000000000000 ) ) ;
#70 = DIRECTION ( 'NONE',  ( 0.0000000000000000000, 0.0000000000000000000, 1.000000000000000000 ) ) ;
#71 = CARTESIAN_POINT ( 'NONE',  ( 0.0000000000000000000, 0.0000000000000000000, 0.7500000000000001100 ) ) ;
#72 = DIRECTION ( 'NONE',  ( -1.000000000000000000, 0.0000000000000000000, 0.0000000000000000000 ) ) ;
#73 = DIRECTION ( 'NONE',  ( -0.0000000000000000000, -0.0000000000000000000, -1.000000000000000000 ) ) ;
#74 = CARTESIAN_POINT ( 'NONE',  ( 0.0000000000000000000, 0.0000000000000000000, 0.7500000000000001100 ) ) ;
#75 =( NAMED_UNIT ( * ) SI_UNIT ( $, .STERADIAN. ) SOLID_ANGLE_UNIT ( ) );
#76 =( NAMED_UNIT ( * ) PLANE_ANGLE_UNIT ( ) SI_UNIT ( $, .RADIAN. ) );
#77 =( CONVERSION_BASED_UNIT ( 'INCH', #149 ) LENGTH_UNIT ( ) NAMED_UNIT ( #135 ) );
#78 =( LENGTH_UNIT ( ) NAMED_UNIT ( * ) SI_UNIT ( $, .METRE. ) );
#79 = PRESENTATION_STYLE_ASSIGNMENT (( #80 ) ) ;
#80 = SURFACE_STYLE_USAGE ( .BOTH. , #81 ) ;
#81 = SURFACE_SIDE_STYLE ('',( #82 ) ) ;
#82 = SURFACE_STYLE_FILL_AREA ( #83 ) ;
#83 = FILL_AREA_STYLE ('',( #84 ) ) ;
#84 = FILL_AREA_STYLE_COLOUR ( '', #205 ) ;
#85 = CARTESIAN_POINT ( 'NONE',  ( -0.7499999999999998900, 0.0000000000000000000, 0.0000000000000000000 ) ) ;
#86 = CARTESIAN_POINT ( 'NONE',  ( -0.3799999999999999500, 0.0000000000000000000, 0.7500000000000001100 ) ) ;
#87 = CARTESIAN_POINT ( 'NONE',  ( 0.3799999999999999500, 4.653657836759941100E-017, 0.7500000000000001100 ) ) ;
#88 = CARTESIAN_POINT ( 'NONE',  ( -0.7499999999999998900, 0.0000000000000000000, 0.7500000000000001100 ) ) ;
#89 = CARTESIAN_POINT ( 'NONE',  ( 0.7499999999999998900, 9.184850993605146000E-017, 0.0000000000000000000 ) ) ;
#90 = CARTESIAN_POINT ( 'NONE',  ( 0.7499999999999998900, 9.184850993605146000E-017, 0.7500000000000001100 ) ) ;
#91 = CARTESIAN_POINT ( 'NONE',  ( 0.3799999999999999500, 4.653657836759941100E-017, 0.0000000000000000000 ) ) ;
#92 = CARTESIAN_POINT ( 'NONE',  ( -0.3799999999999999500, 0.0000000000000000000, 0.0000000000000000000 ) ) ;
#93 = ORIENTED_EDGE ( 'NONE', *, *, #204, .F. ) ;
#94 = ORIENTED_EDGE ( 'NONE', *, *, #197, .T. ) ;
#95 = ORIENTED_EDGE ( 'NONE', *, *, #204, .T. ) ;
#96 = ORIENTED_EDGE ( 'NONE', *, *, #195, .F. ) ;
#97 = ORIENTED_EDGE ( 'NONE', *, *, #203, .T. ) ;
#98 = ORIENTED_EDGE ( 'NONE', *, *, #202, .F. ) ;
#99 = ORIENTED_EDGE ( 'NONE', *, *, #218, .T. ) ;
#100 = ORIENTED_EDGE ( 'NONE', *, *, #201, .T. ) ;
#101 = ORIENTED_EDGE ( 'NONE', *, *, #216, .F. ) ;
#102 = ORIENTED_EDGE ( 'NONE', *, *, #200, .F. ) ;
#103 = ORIENTED_EDGE ( 'NONE', *, *, #202, .T. ) ;
#104 = ORIENTED_EDGE ( 'NONE', *, *, #203, .F. ) ;
#105 = ORIENTED_EDGE ( 'NONE', *, *, #199, .T. ) ;
#106 = ORIENTED_EDGE ( 'NONE', *, *, #200, .T. ) ;
#107 = ORIENTED_EDGE ( 'NONE', *, *, #196, .T. ) ;
#108 = ORIENTED_EDGE ( 'NONE', *, *, #201, .F. ) ;
#109 = ORIENTED_EDGE ( 'NONE', *, *, #218, .F. ) ;
#110 = ORIENTED_EDGE ( 'NONE', *, *, #199, .F. ) ;
#111 = ORIENTED_EDGE ( 'NONE', *, *, #198, .T. ) ;
#112 = ORIENTED_EDGE ( 'NONE', *, *, #198, .F. ) ;
#113 = ORIENTED_EDGE ( 'NONE', *, *, #216, .T. ) ;
#114 = ORIENTED_EDGE ( 'NONE', *, *, #196, .F. ) ;
#115 = ORIENTED_EDGE ( 'NONE', *, *, #195, .T. ) ;
#116 = VERTEX_POINT ( 'NONE', #92 ) ;
#117 = VERTEX_POINT ( 'NONE', #91 ) ;
#118 = VERTEX_POINT ( 'NONE', #90 ) ;
#119 = VERTEX_POINT ( 'NONE', #89 ) ;
#120 = VERTEX_POINT ( 'NONE', #88 ) ;
#121 = VERTEX_POINT ( 'NONE', #87 ) ;
#122 = VERTEX_POINT ( 'NONE', #86 ) ;
#123 = VERTEX_POINT ( 'NONE', #85 ) ;
#124 = ORIENTED_EDGE ( 'NONE', *, *, #197, .F. ) ;
#125 = EDGE_LOOP ( 'NONE', ( #109, #104, #103, #105 ) ) ;
#126 = EDGE_LOOP ( 'NONE', ( #101, #95, #111, #102 ) ) ;
#127 = EDGE_LOOP ( 'NONE', ( #97, #94 ) ) ;
#128 = EDGE_LOOP ( 'NONE', ( #115, #113, #114, #112 ) ) ;
#129 = EDGE_LOOP ( 'NONE', ( #124, #99, #100, #98 ) ) ;
#130 = EDGE_LOOP ( 'NONE', ( #96, #93 ) ) ;
#131 = EDGE_LOOP ( 'NONE', ( #110, #108 ) ) ;
#132 = DIMENSIONAL_EXPONENTS ( 1.000000000000000000, 0.0000000000000000000, 0.0000000000000000000, 0.0000000000000000000, 0.0000000000000000000, 0.0000000000000000000, 0.0000000000000000000 ) ;
#133 = DIMENSIONAL_EXPONENTS ( 1.000000000000000000, 0.0000000000000000000, 0.0000000000000000000, 0.0000000000000000000, 0.0000000000000000000, 0.0000000000000000000, 0.0000000000000000000 ) ;
#134 = PRODUCT ( 'H750L', 'H750L', '', ( #167 ) ) ;
#135 = DIMENSIONAL_EXPONENTS ( 1.000000000000000000, 0.0000000000000000000, 0.0000000000000000000, 0.0000000000000000000, 0.0000000000000000000, 0.0000000000000000000, 0.0000000000000000000 ) ;
#136 = UNCERTAINTY_MEASURE_WITH_UNIT (LENGTH_MEASURE( 1.000000000000000100E-005 ), #165, 'distance_accuracy_value', 'NONE');
#137 = ADVANCED_BREP_SHAPE_REPRESENTATION ( 'H750L', ( #142, #31 ), #208 ) ;
#138 = UNCERTAINTY_MEASURE_WITH_UNIT (LENGTH_MEASURE( 1.000000000000000100E-005 ), #181, 'distance_accuracy_value', 'NONE');
#139 = UNCERTAINTY_MEASURE_WITH_UNIT (LENGTH_MEASURE( 1.000000000000000100E-005 ), #77, 'distance_accuracy_value', 'NONE');
#140 = PRODUCT_DEFINITION_SHAPE ( 'NONE', 'NONE',  #144 ) ;
#141 = PRODUCT_DEFINITION_CONTEXT ( 'detailed design', #193, 'design' ) ;
#142 = MANIFOLD_SOLID_BREP ( 'Boss-Extrude1', #148 ) ;
#143 = COLOUR_RGB ( '',0.5686274509803921400, 0.5686274509803921400, 0.5882352941176470800 ) ;
#144 = PRODUCT_DEFINITION ( 'UNKNOWN', '', #32, #141 ) ;
#145 = PRODUCT_RELATED_PRODUCT_CATEGORY ( 'part', '', ( #134 ) ) ;
#146 = AXIS2_PLACEMENT_3D ( 'NONE', #43, #42, #41 ) ;
#147 = AXIS2_PLACEMENT_3D ( 'NONE', #71, #70, #69 ) ;
#148 = CLOSED_SHELL ( 'NONE', ( #194, #223, #222, #221, #220, #219 ) ) ;
#149 = LENGTH_MEASURE_WITH_UNIT ( LENGTH_MEASURE( 0.02539999999999999900 ), #78 );
#150 = FACE_OUTER_BOUND ( 'NONE', #128, .T. ) ;
#151 = CYLINDRICAL_SURFACE ( 'NONE', #153, 0.3799999999999999500 ) ;
#152 = MECHANICAL_DESIGN_GEOMETRIC_PRESENTATION_REPRESENTATION (  '', ( #154 ), #207 ) ;
#153 = AXIS2_PLACEMENT_3D ( 'NONE', #74, #73, #72 ) ;
#154 = STYLED_ITEM ( 'NONE', ( #79 ), #142 ) ;
#155 = PRESENTATION_LAYER_ASSIGNMENT (  '', '', ( #154 ) ) ;
#156 = DIRECTION ( 'NONE',  ( 1.000000000000000000, 0.0000000000000000000, 0.0000000000000000000 ) ) ;
#157 = SHAPE_DEFINITION_REPRESENTATION ( #140, #137 ) ;
#158 = APPLICATION_PROTOCOL_DEFINITION ( 'draft international standard', 'automotive_design', 1998, #193 ) ;
#159 = DIRECTION ( 'NONE',  ( 0.0000000000000000000, 0.0000000000000000000, 1.000000000000000000 ) ) ;
#160 = DIRECTION ( 'NONE',  ( 0.0000000000000000000, 0.0000000000000000000, 1.000000000000000000 ) ) ;
#161 = CARTESIAN_POINT ( 'NONE',  ( 0.0000000000000000000, 0.0000000000000000000, 0.0000000000000000000 ) ) ;
#162 = CARTESIAN_POINT ( 'NONE',  ( 0.0000000000000000000, 0.0000000000000000000, 0.0000000000000000000 ) ) ;
#163 =( NAMED_UNIT ( * ) PLANE_ANGLE_UNIT ( ) SI_UNIT ( $, .RADIAN. ) );
#164 = PLANE ( 'NONE',  #21 ) ;
#165 =( CONVERSION_BASED_UNIT ( 'INCH', #30 ) LENGTH_UNIT ( ) NAMED_UNIT ( #132 ) );
#166 =( NAMED_UNIT ( * ) SI_UNIT ( $, .STERADIAN. ) SOLID_ANGLE_UNIT ( ) );
#167 = PRODUCT_CONTEXT ( 'NONE', #192, 'mechanical' ) ;
#168 =( LENGTH_UNIT ( ) NAMED_UNIT ( * ) SI_UNIT ( $, .METRE. ) );
#169 = PRESENTATION_STYLE_ASSIGNMENT (( #170 ) ) ;
#170 = SURFACE_STYLE_USAGE ( .BOTH. , #171 ) ;
#171 = SURFACE_SIDE_STYLE ('',( #172 ) ) ;
#172 = SURFACE_STYLE_FILL_AREA ( #173 ) ;
#173 = FILL_AREA_STYLE ('',( #174 ) ) ;
#174 = FILL_AREA_STYLE_COLOUR ( '', #143 ) ;
#175 = APPLICATION_PROTOCOL_DEFINITION ( 'draft international standard', 'automotive_design', 1998, #192 ) ;
#176 = DIRECTION ( 'NONE',  ( -1.000000000000000000, 0.0000000000000000000, 0.0000000000000000000 ) ) ;
#177 =( NAMED_UNIT ( * ) SI_UNIT ( $, .STERADIAN. ) SOLID_ANGLE_UNIT ( ) );
#178 = CARTESIAN_POINT ( 'NONE',  ( 0.0000000000000000000, 0.0000000000000000000, 0.7500000000000001100 ) ) ;
#179 = DIRECTION ( 'NONE',  ( -0.0000000000000000000, -0.0000000000000000000, -1.000000000000000000 ) ) ;
#180 =( NAMED_UNIT ( * ) PLANE_ANGLE_UNIT ( ) SI_UNIT ( $, .RADIAN. ) );
#181 =( CONVERSION_BASED_UNIT ( 'INCH', #26 ) LENGTH_UNIT ( ) NAMED_UNIT ( #133 ) );
#182 =( LENGTH_UNIT ( ) NAMED_UNIT ( * ) SI_UNIT ( $, .METRE. ) );
#183 = DIRECTION ( 'NONE',  ( -1.000000000000000000, 0.0000000000000000000, 0.0000000000000000000 ) ) ;
#184 = DIRECTION ( 'NONE',  ( -1.000000000000000000, 0.0000000000000000000, 0.0000000000000000000 ) ) ;
#185 = DIRECTION ( 'NONE',  ( -0.0000000000000000000, -0.0000000000000000000, -1.000000000000000000 ) ) ;
#186 = CARTESIAN_POINT ( 'NONE',  ( 0.0000000000000000000, 0.0000000000000000000, 0.7500000000000001100 ) ) ;
#187 = DIRECTION ( 'NONE',  ( 1.000000000000000000, 0.0000000000000000000, -0.0000000000000000000 ) ) ;
#188 = DIRECTION ( 'NONE',  ( 0.0000000000000000000, 0.0000000000000000000, 1.000000000000000000 ) ) ;
#189 = CARTESIAN_POINT ( 'NONE',  ( 0.0000000000000000000, 0.0000000000000000000, 0.7500000000000001100 ) ) ;
#190 = PLANE ( 'NONE',  #24 ) ;
#191 = DIRECTION ( 'NONE',  ( 1.000000000000000000, 0.0000000000000000000, -0.0000000000000000000 ) ) ;
#192 = APPLICATION_CONTEXT ( 'automotive_design' ) ;
#193 = APPLICATION_CONTEXT ( 'automotive_design' ) ;
#194 = ADVANCED_FACE ( 'NONE', ( #150 ), #151, .F. ) ;
#195 = EDGE_CURVE ( 'NONE', #122, #121, #217, .T. ) ;
#196 = EDGE_CURVE ( 'NONE', #116, #117, #206, .T. ) ;
#197 = EDGE_CURVE ( 'NONE', #118, #120, #210, .T. ) ;
#198 = EDGE_CURVE ( 'NONE', #122, #116, #61, .T. ) ;
#199 = EDGE_CURVE ( 'NONE', #123, #119, #211, .T. ) ;
#200 = EDGE_CURVE ( 'NONE', #117, #116, #212, .T. ) ;
#201 = EDGE_CURVE ( 'NONE', #119, #123, #213, .T. ) ;
#202 = EDGE_CURVE ( 'NONE', #120, #123, #47, .T. ) ;
#203 = EDGE_CURVE ( 'NONE', #120, #118, #214, .T. ) ;
#204 = EDGE_CURVE ( 'NONE', #121, #122, #215, .T. ) ;
#205 = COLOUR_RGB ( '',0.5686274509803921400, 0.5686274509803921400, 0.5882352941176470800 ) ;
#206 = CIRCLE ( 'NONE', #1, 0.3799999999999999500 ) ;
#207 =( GEOMETRIC_REPRESENTATION_CONTEXT ( 3 ) GLOBAL_UNCERTAINTY_ASSIGNED_CONTEXT ( ( #139 ) ) GLOBAL_UNIT_ASSIGNED_CONTEXT ( ( #77, #76, #75 ) ) REPRESENTATION_CONTEXT ( 'NONE', 'WORKASPACE' ) );
#208 =( GEOMETRIC_REPRESENTATION_CONTEXT ( 3 ) GLOBAL_UNCERTAINTY_ASSIGNED_CONTEXT ( ( #138 ) ) GLOBAL_UNIT_ASSIGNED_CONTEXT ( ( #181, #180, #177 ) ) REPRESENTATION_CONTEXT ( 'NONE', 'WORKASPACE' ) );
#209 =( GEOMETRIC_REPRESENTATION_CONTEXT ( 3 ) GLOBAL_UNCERTAINTY_ASSIGNED_CONTEXT ( ( #136 ) ) GLOBAL_UNIT_ASSIGNED_CONTEXT ( ( #165, #163, #166 ) ) REPRESENTATION_CONTEXT ( 'NONE', 'WORKASPACE' ) );
#210 = CIRCLE ( 'NONE', #2, 0.7499999999999998900 ) ;
#211 = CIRCLE ( 'NONE', #4, 0.7499999999999998900 ) ;
#212 = CIRCLE ( 'NONE', #6, 0.3799999999999999500 ) ;
#213 = CIRCLE ( 'NONE', #3, 0.7499999999999998900 ) ;
#214 = CIRCLE ( 'NONE', #7, 0.7499999999999998900 ) ;
#215 = CIRCLE ( 'NONE', #146, 0.3799999999999999500 ) ;
#216 = EDGE_CURVE ( 'NONE', #121, #117, #39, .T. ) ;
#217 = CIRCLE ( 'NONE', #147, 0.3799999999999999500 ) ;
#218 = EDGE_CURVE ( 'NONE', #118, #119, #36, .T. ) ;
#219 = ADVANCED_FACE ( 'NONE', ( #8 ), #14, .F. ) ;
#220 = ADVANCED_FACE ( 'NONE', ( #12 ), #17, .T. ) ;
#221 = ADVANCED_FACE ( 'NONE', ( #15, #19 ), #164, .F. ) ;
#222 = ADVANCED_FACE ( 'NONE', ( #20, #18 ), #190, .T. ) ;
#223 = ADVANCED_FACE ( 'NONE', ( #23 ), #25, .T. ) ;
ENDSEC;
END-ISO-10303-21;
