ISO-10303-21;
HEADER;
FILE_DESCRIPTION (( 'STEP AP214' ),
    '1' );
FILE_NAME ('MAGFILM-024.step',
    '2012-04-20T20:59:37',
    ( '' ),
    ( '' ),
    'SwSTEP 2.0',
    'SolidWorks 2012',
    '' );
FILE_SCHEMA (( 'AUTOMOTIVE_DESIGN' ));
ENDSEC;

DATA;
#1 = UNCERTAINTY_MEASURE_WITH_UNIT (LENGTH_MEASURE( 1.000000000000000100E-005 ), #157, 'distance_accuracy_value', 'NONE');
#2 = ADVANCED_BREP_SHAPE_REPRESENTATION ( 'MAGFILM-024', ( #166, #180 ), #115 ) ;
#3 = UNCERTAINTY_MEASURE_WITH_UNIT (LENGTH_MEASURE( 1.000000000000000100E-005 ), #138, 'distance_accuracy_value', 'NONE');
#4 = UNCERTAINTY_MEASURE_WITH_UNIT (LENGTH_MEASURE( 1.000000000000000100E-005 ), #51, 'distance_accuracy_value', 'NONE');
#5 = DIRECTION ( 'NONE',  ( -0.0000000000000000000, -1.000000000000000000, -0.0000000000000000000 ) ) ;
#6 = CARTESIAN_POINT ( 'NONE',  ( 0.0000000000000000000, 0.0000000000000000000, 0.005499999999999999700 ) ) ;
#7 = LINE ( 'NONE', #6, #178 ) ;
#8 = DIRECTION ( 'NONE',  ( -1.000000000000000000, -0.0000000000000000000, -0.0000000000000000000 ) ) ;
#9 = CARTESIAN_POINT ( 'NONE',  ( 0.0000000000000000000, 6.000000000000000900, 0.005499999999999999700 ) ) ;
#10 = LINE ( 'NONE', #9, #185 ) ;
#11 = DIRECTION ( 'NONE',  ( -1.000000000000000000, -0.0000000000000000000, -0.0000000000000000000 ) ) ;
#12 = CARTESIAN_POINT ( 'NONE',  ( 0.0000000000000000000, 6.000000000000000900, 0.0000000000000000000 ) ) ;
#13 = LINE ( 'NONE', #12, #190 ) ;
#14 = DIRECTION ( 'NONE',  ( 0.0000000000000000000, 1.000000000000000000, 0.0000000000000000000 ) ) ;
#15 = CARTESIAN_POINT ( 'NONE',  ( 4.000000000000000000, 0.0000000000000000000, 0.005499999999999999700 ) ) ;
#16 = LINE ( 'NONE', #15, #189 ) ;
#17 = DIRECTION ( 'NONE',  ( 0.0000000000000000000, 1.000000000000000000, 0.0000000000000000000 ) ) ;
#18 = CARTESIAN_POINT ( 'NONE',  ( 4.000000000000000000, 0.0000000000000000000, 0.0000000000000000000 ) ) ;
#19 = LINE ( 'NONE', #18, #168 ) ;
#20 = DIRECTION ( 'NONE',  ( -0.0000000000000000000, -0.0000000000000000000, -1.000000000000000000 ) ) ;
#21 = CARTESIAN_POINT ( 'NONE',  ( 4.000000000000000000, 6.000000000000000900, 0.005499999999999999700 ) ) ;
#22 = LINE ( 'NONE', #21, #169 ) ;
#23 = DIRECTION ( 'NONE',  ( 1.000000000000000000, 0.0000000000000000000, 0.0000000000000000000 ) ) ;
#24 = CARTESIAN_POINT ( 'NONE',  ( 0.0000000000000000000, 0.0000000000000000000, 0.005499999999999999700 ) ) ;
#25 = LINE ( 'NONE', #24, #171 ) ;
#26 = DIRECTION ( 'NONE',  ( 0.0000000000000000000, 0.0000000000000000000, -1.000000000000000000 ) ) ;
#27 = DIRECTION ( 'NONE',  ( 1.000000000000000000, 0.0000000000000000000, 0.0000000000000000000 ) ) ;
#28 = CARTESIAN_POINT ( 'NONE',  ( 0.0000000000000000000, 0.0000000000000000000, 0.005499999999999999700 ) ) ;
#29 = PLANE ( 'NONE',  #172 ) ;
#30 = DIRECTION ( 'NONE',  ( 0.0000000000000000000, -0.0000000000000000000, 1.000000000000000000 ) ) ;
#31 = DIRECTION ( 'NONE',  ( 0.0000000000000000000, 1.000000000000000000, 0.0000000000000000000 ) ) ;
#32 = CARTESIAN_POINT ( 'NONE',  ( 0.0000000000000000000, 0.0000000000000000000, 0.005499999999999999700 ) ) ;
#33 = PLANE ( 'NONE',  #174 ) ;
#34 = DIRECTION ( 'NONE',  ( 0.0000000000000000000, 0.0000000000000000000, 1.000000000000000000 ) ) ;
#35 = DIRECTION ( 'NONE',  ( -1.000000000000000000, 0.0000000000000000000, 0.0000000000000000000 ) ) ;
#36 = CARTESIAN_POINT ( 'NONE',  ( 4.000000000000000000, 0.0000000000000000000, 0.005499999999999999700 ) ) ;
#37 = PLANE ( 'NONE',  #124 ) ;
#38 = DIRECTION ( 'NONE',  ( 0.0000000000000000000, -0.0000000000000000000, -1.000000000000000000 ) ) ;
#39 = DIRECTION ( 'NONE',  ( 0.0000000000000000000, -1.000000000000000000, 0.0000000000000000000 ) ) ;
#40 = CARTESIAN_POINT ( 'NONE',  ( 0.0000000000000000000, 6.000000000000000900, 0.005499999999999999700 ) ) ;
#41 = PLANE ( 'NONE',  #173 ) ;
#42 = DIRECTION ( 'NONE',  ( -1.000000000000000000, 0.0000000000000000000, -0.0000000000000000000 ) ) ;
#43 = DIRECTION ( 'NONE',  ( 0.0000000000000000000, 0.0000000000000000000, -1.000000000000000000 ) ) ;
#44 = CARTESIAN_POINT ( 'NONE',  ( 0.0000000000000000000, 0.0000000000000000000, 0.005499999999999999700 ) ) ;
#45 = PLANE ( 'NONE',  #117 ) ;
#46 =( NAMED_UNIT ( * ) SI_UNIT ( $, .STERADIAN. ) SOLID_ANGLE_UNIT ( ) );
#47 = EDGE_LOOP ( 'NONE', ( #89, #80, #90, #78 ) ) ;
#48 = EDGE_LOOP ( 'NONE', ( #77, #76, #75, #79 ) ) ;
#49 = EDGE_LOOP ( 'NONE', ( #73, #72, #71, #74 ) ) ;
#50 =( NAMED_UNIT ( * ) PLANE_ANGLE_UNIT ( ) SI_UNIT ( $, .RADIAN. ) );
#51 =( CONVERSION_BASED_UNIT ( 'INCH', #118 ) LENGTH_UNIT ( ) NAMED_UNIT ( #107 ) );
#52 =( LENGTH_UNIT ( ) NAMED_UNIT ( * ) SI_UNIT ( $, .METRE. ) );
#53 = SURFACE_SIDE_STYLE ('',( #56 ) ) ;
#54 = SURFACE_STYLE_USAGE ( .BOTH. , #53 ) ;
#55 = PRESENTATION_STYLE_ASSIGNMENT (( #54 ) ) ;
#56 = SURFACE_STYLE_FILL_AREA ( #57 ) ;
#57 = FILL_AREA_STYLE ('',( #58 ) ) ;
#58 = FILL_AREA_STYLE_COLOUR ( '', #204 ) ;
#59 = DIRECTION ( 'NONE',  ( -1.000000000000000000, 0.0000000000000000000, -0.0000000000000000000 ) ) ;
#60 = DIRECTION ( 'NONE',  ( 0.0000000000000000000, 0.0000000000000000000, -1.000000000000000000 ) ) ;
#61 = CARTESIAN_POINT ( 'NONE',  ( 0.0000000000000000000, 0.0000000000000000000, 0.0000000000000000000 ) ) ;
#62 = PLANE ( 'NONE',  #121 ) ;
#63 = CARTESIAN_POINT ( 'NONE',  ( 0.0000000000000000000, 0.0000000000000000000, 0.005499999999999999700 ) ) ;
#64 = CARTESIAN_POINT ( 'NONE',  ( 4.000000000000000000, 6.000000000000000900, 0.005499999999999999700 ) ) ;
#65 = CARTESIAN_POINT ( 'NONE',  ( 4.000000000000000000, 6.000000000000000900, 0.0000000000000000000 ) ) ;
#66 = CARTESIAN_POINT ( 'NONE',  ( 4.000000000000000000, 0.0000000000000000000, 0.005499999999999999700 ) ) ;
#67 = CARTESIAN_POINT ( 'NONE',  ( 4.000000000000000000, 0.0000000000000000000, 0.0000000000000000000 ) ) ;
#68 = CARTESIAN_POINT ( 'NONE',  ( 0.0000000000000000000, 6.000000000000000900, 0.005499999999999999700 ) ) ;
#69 = CARTESIAN_POINT ( 'NONE',  ( 0.0000000000000000000, 0.0000000000000000000, 0.0000000000000000000 ) ) ;
#70 = CARTESIAN_POINT ( 'NONE',  ( 0.0000000000000000000, 6.000000000000000900, 0.0000000000000000000 ) ) ;
#71 = ORIENTED_EDGE ( 'NONE', *, *, #198, .F. ) ;
#72 = ORIENTED_EDGE ( 'NONE', *, *, #200, .F. ) ;
#73 = ORIENTED_EDGE ( 'NONE', *, *, #209, .F. ) ;
#74 = ORIENTED_EDGE ( 'NONE', *, *, #207, .F. ) ;
#75 = ORIENTED_EDGE ( 'NONE', *, *, #199, .T. ) ;
#76 = ORIENTED_EDGE ( 'NONE', *, *, #196, .T. ) ;
#77 = ORIENTED_EDGE ( 'NONE', *, *, #203, .T. ) ;
#78 = ORIENTED_EDGE ( 'NONE', *, *, #197, .T. ) ;
#79 = ORIENTED_EDGE ( 'NONE', *, *, #201, .T. ) ;
#80 = ORIENTED_EDGE ( 'NONE', *, *, #205, .F. ) ;
#81 = VERTEX_POINT ( 'NONE', #70 ) ;
#82 = VERTEX_POINT ( 'NONE', #69 ) ;
#83 = VERTEX_POINT ( 'NONE', #68 ) ;
#84 = VERTEX_POINT ( 'NONE', #67 ) ;
#85 = VERTEX_POINT ( 'NONE', #66 ) ;
#86 = VERTEX_POINT ( 'NONE', #65 ) ;
#87 = VERTEX_POINT ( 'NONE', #64 ) ;
#88 = VERTEX_POINT ( 'NONE', #63 ) ;
#89 = ORIENTED_EDGE ( 'NONE', *, *, #200, .T. ) ;
#90 = ORIENTED_EDGE ( 'NONE', *, *, #201, .F. ) ;
#91 = ORIENTED_EDGE ( 'NONE', *, *, #206, .T. ) ;
#92 = ORIENTED_EDGE ( 'NONE', *, *, #197, .F. ) ;
#93 = ORIENTED_EDGE ( 'NONE', *, *, #199, .F. ) ;
#94 = ORIENTED_EDGE ( 'NONE', *, *, #198, .T. ) ;
#95 = ORIENTED_EDGE ( 'NONE', *, *, #208, .T. ) ;
#96 = ORIENTED_EDGE ( 'NONE', *, *, #209, .T. ) ;
#97 = ORIENTED_EDGE ( 'NONE', *, *, #206, .F. ) ;
#98 = ORIENTED_EDGE ( 'NONE', *, *, #196, .F. ) ;
#99 = ORIENTED_EDGE ( 'NONE', *, *, #207, .T. ) ;
#100 = ORIENTED_EDGE ( 'NONE', *, *, #205, .T. ) ;
#101 = ORIENTED_EDGE ( 'NONE', *, *, #208, .F. ) ;
#102 = ORIENTED_EDGE ( 'NONE', *, *, #203, .F. ) ;
#103 = EDGE_LOOP ( 'NONE', ( #99, #97, #98, #95 ) ) ;
#104 = EDGE_LOOP ( 'NONE', ( #94, #92, #93, #91 ) ) ;
#105 = EDGE_LOOP ( 'NONE', ( #96, #101, #102, #100 ) ) ;
#106 = PRODUCT_DEFINITION_FORMATION_WITH_SPECIFIED_SOURCE ( 'ANY', '', #110, .NOT_KNOWN. ) ;
#107 = DIMENSIONAL_EXPONENTS ( 1.000000000000000000, 0.0000000000000000000, 0.0000000000000000000, 0.0000000000000000000, 0.0000000000000000000, 0.0000000000000000000, 0.0000000000000000000 ) ;
#108 = DIMENSIONAL_EXPONENTS ( 1.000000000000000000, 0.0000000000000000000, 0.0000000000000000000, 0.0000000000000000000, 0.0000000000000000000, 0.0000000000000000000, 0.0000000000000000000 ) ;
#109 = DIMENSIONAL_EXPONENTS ( 1.000000000000000000, 0.0000000000000000000, 0.0000000000000000000, 0.0000000000000000000, 0.0000000000000000000, 0.0000000000000000000, 0.0000000000000000000 ) ;
#110 = PRODUCT ( 'MAGFILM-024', 'MAGFILM-024', '', ( #154 ) ) ;
#111 = ADVANCED_FACE ( 'NONE', ( #125 ), #62, .T. ) ;
#112 = PRODUCT_DEFINITION ( 'UNKNOWN', '', #106, #167 ) ;
#113 = PRODUCT_RELATED_PRODUCT_CATEGORY ( 'part', '', ( #110 ) ) ;
#114 =( GEOMETRIC_REPRESENTATION_CONTEXT ( 3 ) GLOBAL_UNCERTAINTY_ASSIGNED_CONTEXT ( ( #4 ) ) GLOBAL_UNIT_ASSIGNED_CONTEXT ( ( #51, #50, #46 ) ) REPRESENTATION_CONTEXT ( 'NONE', 'WORKASPACE' ) );
#115 =( GEOMETRIC_REPRESENTATION_CONTEXT ( 3 ) GLOBAL_UNCERTAINTY_ASSIGNED_CONTEXT ( ( #1 ) ) GLOBAL_UNIT_ASSIGNED_CONTEXT ( ( #157, #153, #151 ) ) REPRESENTATION_CONTEXT ( 'NONE', 'WORKASPACE' ) );
#116 =( GEOMETRIC_REPRESENTATION_CONTEXT ( 3 ) GLOBAL_UNCERTAINTY_ASSIGNED_CONTEXT ( ( #3 ) ) GLOBAL_UNIT_ASSIGNED_CONTEXT ( ( #138, #136, #135 ) ) REPRESENTATION_CONTEXT ( 'NONE', 'WORKASPACE' ) );
#117 = AXIS2_PLACEMENT_3D ( 'NONE', #44, #43, #42 ) ;
#118 = LENGTH_MEASURE_WITH_UNIT ( LENGTH_MEASURE( 0.02539999999999999900 ), #52 );
#119 = STYLED_ITEM ( 'NONE', ( #55 ), #166 ) ;
#120 = PRESENTATION_LAYER_ASSIGNMENT (  '', '', ( #119 ) ) ;
#121 = AXIS2_PLACEMENT_3D ( 'NONE', #61, #60, #59 ) ;
#122 = FACE_OUTER_BOUND ( 'NONE', #48, .T. ) ;
#123 = FACE_OUTER_BOUND ( 'NONE', #103, .T. ) ;
#124 = AXIS2_PLACEMENT_3D ( 'NONE', #36, #35, #34 ) ;
#125 = FACE_OUTER_BOUND ( 'NONE', #49, .T. ) ;
#126 = MECHANICAL_DESIGN_GEOMETRIC_PRESENTATION_REPRESENTATION (  '', ( #119 ), #114 ) ;
#127 = CLOSED_SHELL ( 'NONE', ( #195, #194, #193, #192, #191, #111 ) ) ;
#128 = FACE_OUTER_BOUND ( 'NONE', #47, .T. ) ;
#129 = DIRECTION ( 'NONE',  ( 1.000000000000000000, 0.0000000000000000000, 0.0000000000000000000 ) ) ;
#130 = DIRECTION ( 'NONE',  ( 0.0000000000000000000, 0.0000000000000000000, 1.000000000000000000 ) ) ;
#131 = CARTESIAN_POINT ( 'NONE',  ( 0.0000000000000000000, 0.0000000000000000000, 0.0000000000000000000 ) ) ;
#132 = DIRECTION ( 'NONE',  ( -0.0000000000000000000, -0.0000000000000000000, -1.000000000000000000 ) ) ;
#133 = CARTESIAN_POINT ( 'NONE',  ( 0.0000000000000000000, 6.000000000000000900, 0.005499999999999999700 ) ) ;
#134 = LINE ( 'NONE', #133, #188 ) ;
#135 =( NAMED_UNIT ( * ) SI_UNIT ( $, .STERADIAN. ) SOLID_ANGLE_UNIT ( ) );
#136 =( NAMED_UNIT ( * ) PLANE_ANGLE_UNIT ( ) SI_UNIT ( $, .RADIAN. ) );
#137 =( LENGTH_UNIT ( ) NAMED_UNIT ( * ) SI_UNIT ( $, .METRE. ) );
#138 =( CONVERSION_BASED_UNIT ( 'INCH', #187 ) LENGTH_UNIT ( ) NAMED_UNIT ( #109 ) );
#139 = PRESENTATION_STYLE_ASSIGNMENT (( #140 ) ) ;
#140 = SURFACE_STYLE_USAGE ( .BOTH. , #141 ) ;
#141 = SURFACE_SIDE_STYLE ('',( #142 ) ) ;
#142 = SURFACE_STYLE_FILL_AREA ( #143 ) ;
#143 = FILL_AREA_STYLE ('',( #144 ) ) ;
#144 = FILL_AREA_STYLE_COLOUR ( '', #202 ) ;
#145 = APPLICATION_PROTOCOL_DEFINITION ( 'draft international standard', 'automotive_design', 1998, #210 ) ;
#146 = APPLICATION_PROTOCOL_DEFINITION ( 'draft international standard', 'automotive_design', 1998, #211 ) ;
#147 = SHAPE_DEFINITION_REPRESENTATION ( #165, #2 ) ;
#148 = DIRECTION ( 'NONE',  ( -0.0000000000000000000, -0.0000000000000000000, -1.000000000000000000 ) ) ;
#149 = CARTESIAN_POINT ( 'NONE',  ( 4.000000000000000000, 0.0000000000000000000, 0.005499999999999999700 ) ) ;
#150 = LINE ( 'NONE', #149, #186 ) ;
#151 =( NAMED_UNIT ( * ) SI_UNIT ( $, .STERADIAN. ) SOLID_ANGLE_UNIT ( ) );
#152 = DIRECTION ( 'NONE',  ( -0.0000000000000000000, -1.000000000000000000, -0.0000000000000000000 ) ) ;
#153 =( NAMED_UNIT ( * ) PLANE_ANGLE_UNIT ( ) SI_UNIT ( $, .RADIAN. ) );
#154 = PRODUCT_CONTEXT ( 'NONE', #210, 'mechanical' ) ;
#155 = CARTESIAN_POINT ( 'NONE',  ( 0.0000000000000000000, 0.0000000000000000000, 0.0000000000000000000 ) ) ;
#156 =( LENGTH_UNIT ( ) NAMED_UNIT ( * ) SI_UNIT ( $, .METRE. ) );
#157 =( CONVERSION_BASED_UNIT ( 'INCH', #170 ) LENGTH_UNIT ( ) NAMED_UNIT ( #108 ) );
#158 = LINE ( 'NONE', #155, #179 ) ;
#159 = DIRECTION ( 'NONE',  ( -0.0000000000000000000, -0.0000000000000000000, -1.000000000000000000 ) ) ;
#160 = CARTESIAN_POINT ( 'NONE',  ( 0.0000000000000000000, 0.0000000000000000000, 0.005499999999999999700 ) ) ;
#161 = LINE ( 'NONE', #160, #182 ) ;
#162 = DIRECTION ( 'NONE',  ( 1.000000000000000000, 0.0000000000000000000, 0.0000000000000000000 ) ) ;
#163 = CARTESIAN_POINT ( 'NONE',  ( 0.0000000000000000000, 0.0000000000000000000, 0.0000000000000000000 ) ) ;
#164 = LINE ( 'NONE', #163, #184 ) ;
#165 = PRODUCT_DEFINITION_SHAPE ( 'NONE', 'NONE',  #112 ) ;
#166 = MANIFOLD_SOLID_BREP ( 'Boss-Extrude1', #127 ) ;
#167 = PRODUCT_DEFINITION_CONTEXT ( 'detailed design', #211, 'design' ) ;
#168 = VECTOR ( 'NONE', #17, 39.37007874015748100 ) ;
#169 = VECTOR ( 'NONE', #20, 39.37007874015748100 ) ;
#170 = LENGTH_MEASURE_WITH_UNIT ( LENGTH_MEASURE( 0.02539999999999999900 ), #156 );
#171 = VECTOR ( 'NONE', #23, 39.37007874015748100 ) ;
#172 = AXIS2_PLACEMENT_3D ( 'NONE', #28, #27, #26 ) ;
#173 = AXIS2_PLACEMENT_3D ( 'NONE', #40, #39, #38 ) ;
#174 = AXIS2_PLACEMENT_3D ( 'NONE', #32, #31, #30 ) ;
#175 = FACE_OUTER_BOUND ( 'NONE', #104, .T. ) ;
#176 = FACE_OUTER_BOUND ( 'NONE', #105, .T. ) ;
#177 = STYLED_ITEM ( 'NONE', ( #139 ), #2 ) ;
#178 = VECTOR ( 'NONE', #5, 39.37007874015748100 ) ;
#179 = VECTOR ( 'NONE', #152, 39.37007874015748100 ) ;
#180 = AXIS2_PLACEMENT_3D ( 'NONE', #131, #130, #129 ) ;
#181 = MECHANICAL_DESIGN_GEOMETRIC_PRESENTATION_REPRESENTATION (  '', ( #177 ), #116 ) ;
#182 = VECTOR ( 'NONE', #159, 39.37007874015748100 ) ;
#183 = PRESENTATION_LAYER_ASSIGNMENT (  '', '', ( #177 ) ) ;
#184 = VECTOR ( 'NONE', #162, 39.37007874015748100 ) ;
#185 = VECTOR ( 'NONE', #8, 39.37007874015748100 ) ;
#186 = VECTOR ( 'NONE', #148, 39.37007874015748100 ) ;
#187 = LENGTH_MEASURE_WITH_UNIT ( LENGTH_MEASURE( 0.02539999999999999900 ), #137 );
#188 = VECTOR ( 'NONE', #132, 39.37007874015748100 ) ;
#189 = VECTOR ( 'NONE', #14, 39.37007874015748100 ) ;
#190 = VECTOR ( 'NONE', #11, 39.37007874015748100 ) ;
#191 = ADVANCED_FACE ( 'NONE', ( #122 ), #45, .F. ) ;
#192 = ADVANCED_FACE ( 'NONE', ( #128 ), #41, .F. ) ;
#193 = ADVANCED_FACE ( 'NONE', ( #175 ), #37, .F. ) ;
#194 = ADVANCED_FACE ( 'NONE', ( #123 ), #33, .F. ) ;
#195 = ADVANCED_FACE ( 'NONE', ( #176 ), #29, .F. ) ;
#196 = EDGE_CURVE ( 'NONE', #88, #85, #25, .T. ) ;
#197 = EDGE_CURVE ( 'NONE', #87, #86, #22, .T. ) ;
#198 = EDGE_CURVE ( 'NONE', #84, #86, #19, .T. ) ;
#199 = EDGE_CURVE ( 'NONE', #85, #87, #16, .T. ) ;
#200 = EDGE_CURVE ( 'NONE', #86, #81, #13, .T. ) ;
#201 = EDGE_CURVE ( 'NONE', #87, #83, #10, .T. ) ;
#202 = COLOUR_RGB ( '',0.0000000000000000000, 0.4352941176470588300, 0.01176470588235294100 ) ;
#203 = EDGE_CURVE ( 'NONE', #83, #88, #7, .T. ) ;
#204 = COLOUR_RGB ( '',0.0000000000000000000, 0.4352941176470588300, 0.01176470588235294100 ) ;
#205 = EDGE_CURVE ( 'NONE', #83, #81, #134, .T. ) ;
#206 = EDGE_CURVE ( 'NONE', #85, #84, #150, .T. ) ;
#207 = EDGE_CURVE ( 'NONE', #82, #84, #164, .T. ) ;
#208 = EDGE_CURVE ( 'NONE', #88, #82, #161, .T. ) ;
#209 = EDGE_CURVE ( 'NONE', #81, #82, #158, .T. ) ;
#210 = APPLICATION_CONTEXT ( 'automotive_design' ) ;
#211 = APPLICATION_CONTEXT ( 'automotive_design' ) ;
ENDSEC;
END-ISO-10303-21;
