ISO-10303-21;
HEADER;
FILE_DESCRIPTION (( 'STEP AP214' ),
    '1' );
FILE_NAME ('P063BD.step',
    '2012-04-20T20:59:49',
    ( '' ),
    ( '' ),
    'SwSTEP 2.0',
    'SolidWorks 2012',
    '' );
FILE_SCHEMA (( 'AUTOMOTIVE_DESIGN' ));
ENDSEC;

DATA;
#1 = LINE ( 'NONE', #3, #187 ) ;
#2 = DIRECTION ( 'NONE',  ( -0.0000000000000000000, -0.0000000000000000000, 1.000000000000000000 ) ) ;
#3 = CARTESIAN_POINT ( 'NONE',  ( 0.0000000000000000000, 0.0000000000000000000, 0.0000000000000000000 ) ) ;
#4 = ORIENTED_EDGE ( 'NONE', *, *, #112, .T. ) ;
#5 = ORIENTED_EDGE ( 'NONE', *, *, #205, .F. ) ;
#6 = ORIENTED_EDGE ( 'NONE', *, *, #111, .F. ) ;
#7 = CARTESIAN_POINT ( 'NONE',  ( 0.2500000000000000000, 0.06250000000000000000, 6.123233995736767300E-017 ) ) ;
#8 = DIRECTION ( 'NONE',  ( -0.0000000000000000000, -1.000000000000000000, -0.0000000000000000000 ) ) ;
#9 = DIRECTION ( 'NONE',  ( 2.449293598294706900E-016, 0.0000000000000000000, -1.000000000000000000 ) ) ;
#10 = DIRECTION ( 'NONE',  ( -1.000000000000000000, 0.0000000000000000000, -2.449293598294706900E-016 ) ) ;
#11 = CARTESIAN_POINT ( 'NONE',  ( 0.2500000000000000000, 0.06250000000000000000, 6.123233995736767300E-017 ) ) ;
#12 = LINE ( 'NONE', #7, #181 ) ;
#13 = DIRECTION ( 'NONE',  ( -1.000000000000000000, 0.0000000000000000000, 1.365923996832131600E-016 ) ) ;
#14 = PLANE ( 'NONE',  #175 ) ;
#15 = DIRECTION ( 'NONE',  ( 1.365923996832131600E-016, 0.0000000000000000000, 1.000000000000000000 ) ) ;
#16 = DIRECTION ( 'NONE',  ( 1.000000000000000000, 0.0000000000000000000, -0.0000000000000000000 ) ) ;
#17 = PLANE ( 'NONE',  #179 ) ;
#18 = EDGE_LOOP ( 'NONE', ( #55, #54, #99, #53 ) ) ;
#19 = CARTESIAN_POINT ( 'NONE',  ( 0.2499999999999999200, 0.06250000000000000000, -0.4999999999999999400 ) ) ;
#20 = EDGE_LOOP ( 'NONE', ( #97, #95, #96, #94 ) ) ;
#21 = DIRECTION ( 'NONE',  ( 0.0000000000000000000, 0.0000000000000000000, 1.000000000000000000 ) ) ;
#22 = CARTESIAN_POINT ( 'NONE',  ( 0.0000000000000000000, 0.06250000000000000000, -0.4999999999999999400 ) ) ;
#23 = PLANE ( 'NONE',  #186 ) ;
#24 = DIRECTION ( 'NONE',  ( 0.0000000000000000000, 0.0000000000000000000, -1.000000000000000000 ) ) ;
#25 = DIRECTION ( 'NONE',  ( 0.0000000000000000000, -1.000000000000000000, 0.0000000000000000000 ) ) ;
#26 = CARTESIAN_POINT ( 'NONE',  ( 0.0000000000000000000, 0.06250000000000000000, 0.0000000000000000000 ) ) ;
#27 = PLANE ( 'NONE',  #176 ) ;
#28 = DIRECTION ( 'NONE',  ( 0.0000000000000000000, 0.0000000000000000000, -1.000000000000000000 ) ) ;
#29 = DIRECTION ( 'NONE',  ( 0.0000000000000000000, -1.000000000000000000, 0.0000000000000000000 ) ) ;
#30 = CARTESIAN_POINT ( 'NONE',  ( 0.0000000000000000000, 0.0000000000000000000, 0.0000000000000000000 ) ) ;
#31 = PLANE ( 'NONE',  #167 ) ;
#32 = DIRECTION ( 'NONE',  ( 0.0000000000000000000, 0.0000000000000000000, -1.000000000000000000 ) ) ;
#33 = DIRECTION ( 'NONE',  ( 1.000000000000000000, -0.0000000000000000000, 0.0000000000000000000 ) ) ;
#34 = CARTESIAN_POINT ( 'NONE',  ( 0.0000000000000000000, 0.06250000000000000000, 0.0000000000000000000 ) ) ;
#35 = DIRECTION ( 'NONE',  ( -1.000000000000000000, -0.0000000000000000000, -0.0000000000000000000 ) ) ;
#36 = CARTESIAN_POINT ( 'NONE',  ( 0.0000000000000000000, 0.06250000000000000000, -0.4999999999999999400 ) ) ;
#37 = LINE ( 'NONE', #36, #177 ) ;
#38 = DIRECTION ( 'NONE',  ( -1.000000000000000000, -0.0000000000000000000, -0.0000000000000000000 ) ) ;
#39 = CARTESIAN_POINT ( 'NONE',  ( 0.0000000000000000000, 0.0000000000000000000, -0.4999999999999999400 ) ) ;
#40 = LINE ( 'NONE', #39, #166 ) ;
#41 = DIRECTION ( 'NONE',  ( -0.0000000000000000000, -1.000000000000000000, -0.0000000000000000000 ) ) ;
#42 = CARTESIAN_POINT ( 'NONE',  ( 0.0000000000000000000, 0.06250000000000000000, -0.4999999999999999400 ) ) ;
#43 = LINE ( 'NONE', #42, #191 ) ;
#44 = DIRECTION ( 'NONE',  ( -1.365923996832131600E-016, -0.0000000000000000000, -1.000000000000000000 ) ) ;
#45 = CARTESIAN_POINT ( 'NONE',  ( 0.2499999999999999200, 0.06250000000000000000, -0.4999999999999999400 ) ) ;
#46 = LINE ( 'NONE', #45, #188 ) ;
#47 = DIRECTION ( 'NONE',  ( -0.0000000000000000000, -1.000000000000000000, -0.0000000000000000000 ) ) ;
#48 = CARTESIAN_POINT ( 'NONE',  ( 0.2499999999999999200, 0.06250000000000000000, -0.4999999999999999400 ) ) ;
#49 = LINE ( 'NONE', #48, #168 ) ;
#50 = DIRECTION ( 'NONE',  ( -0.0000000000000000000, -1.000000000000000000, -0.0000000000000000000 ) ) ;
#51 = CARTESIAN_POINT ( 'NONE',  ( 0.0000000000000000000, 0.06250000000000000000, 0.0000000000000000000 ) ) ;
#52 = LINE ( 'NONE', #51, #125 ) ;
#53 = ORIENTED_EDGE ( 'NONE', *, *, #205, .T. ) ;
#54 = ORIENTED_EDGE ( 'NONE', *, *, #113, .F. ) ;
#55 = ORIENTED_EDGE ( 'NONE', *, *, #108, .T. ) ;
#56 = LINE ( 'NONE', #57, #124 ) ;
#57 = CARTESIAN_POINT ( 'NONE',  ( 0.2500000000000000000, 0.06250000000000000000, 6.123233995736767300E-017 ) ) ;
#58 = DIRECTION ( 'NONE',  ( 1.000000000000000000, -0.0000000000000000000, 2.449293598294706900E-016 ) ) ;
#59 = LINE ( 'NONE', #60, #122 ) ;
#60 = CARTESIAN_POINT ( 'NONE',  ( 0.2500000000000000000, 0.0000000000000000000, 6.123233995736767300E-017 ) ) ;
#61 = DIRECTION ( 'NONE',  ( 1.000000000000000000, -0.0000000000000000000, 2.449293598294706900E-016 ) ) ;
#62 = CARTESIAN_POINT ( 'NONE',  ( 0.2499999999999999200, 0.0000000000000000000, -0.4999999999999999400 ) ) ;
#63 = PLANE ( 'NONE',  #170 ) ;
#64 = DIRECTION ( 'NONE',  ( -1.365923996832131600E-016, -0.0000000000000000000, -1.000000000000000000 ) ) ;
#65 = CARTESIAN_POINT ( 'NONE',  ( 0.0000000000000000000, 0.06250000000000000000, -0.4999999999999999400 ) ) ;
#66 = CARTESIAN_POINT ( 'NONE',  ( 0.2499999999999999200, 0.06250000000000000000, -0.4999999999999999400 ) ) ;
#67 = LINE ( 'NONE', #62, #127 ) ;
#68 = CARTESIAN_POINT ( 'NONE',  ( 0.0000000000000000000, 0.06250000000000000000, 0.0000000000000000000 ) ) ;
#69 = CARTESIAN_POINT ( 'NONE',  ( 0.2500000000000000000, 0.06250000000000000000, 6.123233995736767300E-017 ) ) ;
#70 = CARTESIAN_POINT ( 'NONE',  ( 0.2499999999999999200, 0.0000000000000000000, -0.4999999999999999400 ) ) ;
#71 = CARTESIAN_POINT ( 'NONE',  ( 0.2500000000000000000, 0.0000000000000000000, 6.123233995736767300E-017 ) ) ;
#72 = CARTESIAN_POINT ( 'NONE',  ( 0.0000000000000000000, 0.0000000000000000000, -0.4999999999999999400 ) ) ;
#73 = CARTESIAN_POINT ( 'NONE',  ( 0.0000000000000000000, 0.0000000000000000000, 0.0000000000000000000 ) ) ;
#74 = ORIENTED_EDGE ( 'NONE', *, *, #120, .F. ) ;
#75 = ORIENTED_EDGE ( 'NONE', *, *, #206, .F. ) ;
#76 = ORIENTED_EDGE ( 'NONE', *, *, #110, .F. ) ;
#77 = ORIENTED_EDGE ( 'NONE', *, *, #108, .F. ) ;
#78 = ORIENTED_EDGE ( 'NONE', *, *, #198, .T. ) ;
#79 = ORIENTED_EDGE ( 'NONE', *, *, #114, .T. ) ;
#80 = ORIENTED_EDGE ( 'NONE', *, *, #111, .T. ) ;
#81 = ORIENTED_EDGE ( 'NONE', *, *, #115, .T. ) ;
#82 = ORIENTED_EDGE ( 'NONE', *, *, #207, .T. ) ;
#83 = ORIENTED_EDGE ( 'NONE', *, *, #112, .F. ) ;
#84 = VERTEX_POINT ( 'NONE', #73 ) ;
#85 = VERTEX_POINT ( 'NONE', #72 ) ;
#86 = VERTEX_POINT ( 'NONE', #71 ) ;
#87 = VERTEX_POINT ( 'NONE', #70 ) ;
#88 = VERTEX_POINT ( 'NONE', #69 ) ;
#89 = VERTEX_POINT ( 'NONE', #68 ) ;
#90 = VERTEX_POINT ( 'NONE', #65 ) ;
#91 = VERTEX_POINT ( 'NONE', #66 ) ;
#92 = ORIENTED_EDGE ( 'NONE', *, *, #206, .T. ) ;
#93 = ORIENTED_EDGE ( 'NONE', *, *, #207, .F. ) ;
#94 = ORIENTED_EDGE ( 'NONE', *, *, #113, .T. ) ;
#95 = ORIENTED_EDGE ( 'NONE', *, *, #115, .F. ) ;
#96 = ORIENTED_EDGE ( 'NONE', *, *, #198, .F. ) ;
#97 = ORIENTED_EDGE ( 'NONE', *, *, #120, .T. ) ;
#98 = ORIENTED_EDGE ( 'NONE', *, *, #110, .T. ) ;
#99 = ORIENTED_EDGE ( 'NONE', *, *, #114, .F. ) ;
#100 = EDGE_LOOP ( 'NONE', ( #80, #79, #78, #82 ) ) ;
#101 = EDGE_LOOP ( 'NONE', ( #98, #5, #6, #4 ) ) ;
#102 = EDGE_LOOP ( 'NONE', ( #76, #75, #74, #77 ) ) ;
#103 = EDGE_LOOP ( 'NONE', ( #92, #83, #93, #81 ) ) ;
#104 = DIMENSIONAL_EXPONENTS ( 1.000000000000000000, 0.0000000000000000000, 0.0000000000000000000, 0.0000000000000000000, 0.0000000000000000000, 0.0000000000000000000, 0.0000000000000000000 ) ;
#105 = PRODUCT ( 'P063BD', 'P063BD', '', ( #129 ) ) ;
#106 = DIMENSIONAL_EXPONENTS ( 1.000000000000000000, 0.0000000000000000000, 0.0000000000000000000, 0.0000000000000000000, 0.0000000000000000000, 0.0000000000000000000, 0.0000000000000000000 ) ;
#107 = DIMENSIONAL_EXPONENTS ( 1.000000000000000000, 0.0000000000000000000, 0.0000000000000000000, 0.0000000000000000000, 0.0000000000000000000, 0.0000000000000000000, 0.0000000000000000000 ) ;
#108 = EDGE_CURVE ( 'NONE', #86, #87, #67, .T. ) ;
#109 = PRODUCT_DEFINITION ( 'UNKNOWN', '', #172, #210 ) ;
#110 = EDGE_CURVE ( 'NONE', #84, #86, #59, .T. ) ;
#111 = EDGE_CURVE ( 'NONE', #89, #88, #56, .T. ) ;
#112 = EDGE_CURVE ( 'NONE', #89, #84, #52, .T. ) ;
#113 = EDGE_CURVE ( 'NONE', #91, #87, #49, .T. ) ;
#114 = EDGE_CURVE ( 'NONE', #88, #91, #46, .T. ) ;
#115 = EDGE_CURVE ( 'NONE', #90, #85, #43, .T. ) ;
#116 = UNCERTAINTY_MEASURE_WITH_UNIT (LENGTH_MEASURE( 1.000000000000000100E-005 ), #149, 'distance_accuracy_value', 'NONE');
#117 = UNCERTAINTY_MEASURE_WITH_UNIT (LENGTH_MEASURE( 1.000000000000000100E-005 ), #136, 'distance_accuracy_value', 'NONE');
#118 = ADVANCED_BREP_SHAPE_REPRESENTATION ( 'P063BD', ( #211, #173 ), #196 ) ;
#119 = UNCERTAINTY_MEASURE_WITH_UNIT (LENGTH_MEASURE( 1.000000000000000100E-005 ), #151, 'distance_accuracy_value', 'NONE');
#120 = EDGE_CURVE ( 'NONE', #87, #85, #40, .T. ) ;
#121 = PRODUCT_RELATED_PRODUCT_CATEGORY ( 'part', '', ( #105 ) ) ;
#122 = VECTOR ( 'NONE', #61, 39.37007874015748100 ) ;
#123 = CLOSED_SHELL ( 'NONE', ( #204, #203, #202, #199, #201, #200 ) ) ;
#124 = VECTOR ( 'NONE', #58, 39.37007874015748100 ) ;
#125 = VECTOR ( 'NONE', #50, 39.37007874015748100 ) ;
#126 = FACE_OUTER_BOUND ( 'NONE', #103, .T. ) ;
#127 = VECTOR ( 'NONE', #64, 39.37007874015748100 ) ;
#128 = APPLICATION_PROTOCOL_DEFINITION ( 'draft international standard', 'automotive_design', 1998, #192 ) ;
#129 = PRODUCT_CONTEXT ( 'NONE', #193, 'mechanical' ) ;
#130 = SHAPE_DEFINITION_REPRESENTATION ( #194, #118 ) ;
#131 = DIRECTION ( 'NONE',  ( 1.000000000000000000, 0.0000000000000000000, 0.0000000000000000000 ) ) ;
#132 =( NAMED_UNIT ( * ) SI_UNIT ( $, .STERADIAN. ) SOLID_ANGLE_UNIT ( ) );
#133 = DIRECTION ( 'NONE',  ( 0.0000000000000000000, 0.0000000000000000000, 1.000000000000000000 ) ) ;
#134 = CARTESIAN_POINT ( 'NONE',  ( 0.0000000000000000000, 0.0000000000000000000, 0.0000000000000000000 ) ) ;
#135 =( NAMED_UNIT ( * ) PLANE_ANGLE_UNIT ( ) SI_UNIT ( $, .RADIAN. ) );
#136 =( CONVERSION_BASED_UNIT ( 'INCH', #163 ) LENGTH_UNIT ( ) NAMED_UNIT ( #107 ) );
#137 =( LENGTH_UNIT ( ) NAMED_UNIT ( * ) SI_UNIT ( $, .METRE. ) );
#138 =( LENGTH_UNIT ( ) NAMED_UNIT ( * ) SI_UNIT ( $, .METRE. ) );
#139 = PRESENTATION_STYLE_ASSIGNMENT (( #140 ) ) ;
#140 = SURFACE_STYLE_USAGE ( .BOTH. , #143 ) ;
#141 = FILL_AREA_STYLE ('',( #145 ) ) ;
#142 = SURFACE_STYLE_FILL_AREA ( #141 ) ;
#143 = SURFACE_SIDE_STYLE ('',( #142 ) ) ;
#144 = APPLICATION_PROTOCOL_DEFINITION ( 'draft international standard', 'automotive_design', 1998, #193 ) ;
#145 = FILL_AREA_STYLE_COLOUR ( '', #209 ) ;
#146 =( NAMED_UNIT ( * ) PLANE_ANGLE_UNIT ( ) SI_UNIT ( $, .RADIAN. ) );
#147 =( NAMED_UNIT ( * ) SI_UNIT ( $, .STERADIAN. ) SOLID_ANGLE_UNIT ( ) );
#148 =( NAMED_UNIT ( * ) SI_UNIT ( $, .STERADIAN. ) SOLID_ANGLE_UNIT ( ) );
#149 =( CONVERSION_BASED_UNIT ( 'INCH', #190 ) LENGTH_UNIT ( ) NAMED_UNIT ( #104 ) );
#150 = LINE ( 'NONE', #155, #169 ) ;
#151 =( CONVERSION_BASED_UNIT ( 'INCH', #182 ) LENGTH_UNIT ( ) NAMED_UNIT ( #106 ) );
#152 = FILL_AREA_STYLE ('',( #160 ) ) ;
#153 = DIRECTION ( 'NONE',  ( -0.0000000000000000000, -0.0000000000000000000, 1.000000000000000000 ) ) ;
#154 =( NAMED_UNIT ( * ) PLANE_ANGLE_UNIT ( ) SI_UNIT ( $, .RADIAN. ) );
#155 = CARTESIAN_POINT ( 'NONE',  ( 0.0000000000000000000, 0.06250000000000000000, 0.0000000000000000000 ) ) ;
#156 =( LENGTH_UNIT ( ) NAMED_UNIT ( * ) SI_UNIT ( $, .METRE. ) );
#157 = SURFACE_SIDE_STYLE ('',( #161 ) ) ;
#158 = SURFACE_STYLE_USAGE ( .BOTH. , #157 ) ;
#159 = PRESENTATION_STYLE_ASSIGNMENT (( #158 ) ) ;
#160 = FILL_AREA_STYLE_COLOUR ( '', #208 ) ;
#161 = SURFACE_STYLE_FILL_AREA ( #152 ) ;
#162 = PRESENTATION_LAYER_ASSIGNMENT (  '', '', ( #178 ) ) ;
#163 = LENGTH_MEASURE_WITH_UNIT ( LENGTH_MEASURE( 0.02539999999999999900 ), #138 );
#164 = MECHANICAL_DESIGN_GEOMETRIC_PRESENTATION_REPRESENTATION (  '', ( #171 ), #195 ) ;
#165 = MECHANICAL_DESIGN_GEOMETRIC_PRESENTATION_REPRESENTATION (  '', ( #178 ), #197 ) ;
#166 = VECTOR ( 'NONE', #38, 39.37007874015748100 ) ;
#167 = AXIS2_PLACEMENT_3D ( 'NONE', #30, #29, #28 ) ;
#168 = VECTOR ( 'NONE', #47, 39.37007874015748100 ) ;
#169 = VECTOR ( 'NONE', #153, 39.37007874015748100 ) ;
#170 = AXIS2_PLACEMENT_3D ( 'NONE', #34, #33, #32 ) ;
#171 = STYLED_ITEM ( 'NONE', ( #159 ), #211 ) ;
#172 = PRODUCT_DEFINITION_FORMATION_WITH_SPECIFIED_SOURCE ( 'ANY', '', #105, .NOT_KNOWN. ) ;
#173 = AXIS2_PLACEMENT_3D ( 'NONE', #134, #133, #131 ) ;
#174 = FACE_OUTER_BOUND ( 'NONE', #101, .T. ) ;
#175 = AXIS2_PLACEMENT_3D ( 'NONE', #11, #9, #10 ) ;
#176 = AXIS2_PLACEMENT_3D ( 'NONE', #26, #25, #24 ) ;
#177 = VECTOR ( 'NONE', #35, 39.37007874015748100 ) ;
#178 = STYLED_ITEM ( 'NONE', ( #139 ), #118 ) ;
#179 = AXIS2_PLACEMENT_3D ( 'NONE', #19, #13, #15 ) ;
#180 = FACE_OUTER_BOUND ( 'NONE', #100, .T. ) ;
#181 = VECTOR ( 'NONE', #8, 39.37007874015748100 ) ;
#182 = LENGTH_MEASURE_WITH_UNIT ( LENGTH_MEASURE( 0.02539999999999999900 ), #137 );
#183 = PRESENTATION_LAYER_ASSIGNMENT (  '', '', ( #171 ) ) ;
#184 = FACE_OUTER_BOUND ( 'NONE', #20, .T. ) ;
#185 = FACE_OUTER_BOUND ( 'NONE', #18, .T. ) ;
#186 = AXIS2_PLACEMENT_3D ( 'NONE', #22, #21, #16 ) ;
#187 = VECTOR ( 'NONE', #2, 39.37007874015748100 ) ;
#188 = VECTOR ( 'NONE', #44, 39.37007874015748100 ) ;
#189 = FACE_OUTER_BOUND ( 'NONE', #102, .T. ) ;
#190 = LENGTH_MEASURE_WITH_UNIT ( LENGTH_MEASURE( 0.02539999999999999900 ), #156 );
#191 = VECTOR ( 'NONE', #41, 39.37007874015748100 ) ;
#192 = APPLICATION_CONTEXT ( 'automotive_design' ) ;
#193 = APPLICATION_CONTEXT ( 'automotive_design' ) ;
#194 = PRODUCT_DEFINITION_SHAPE ( 'NONE', 'NONE',  #109 ) ;
#195 =( GEOMETRIC_REPRESENTATION_CONTEXT ( 3 ) GLOBAL_UNCERTAINTY_ASSIGNED_CONTEXT ( ( #116 ) ) GLOBAL_UNIT_ASSIGNED_CONTEXT ( ( #149, #154, #148 ) ) REPRESENTATION_CONTEXT ( 'NONE', 'WORKASPACE' ) );
#196 =( GEOMETRIC_REPRESENTATION_CONTEXT ( 3 ) GLOBAL_UNCERTAINTY_ASSIGNED_CONTEXT ( ( #119 ) ) GLOBAL_UNIT_ASSIGNED_CONTEXT ( ( #151, #146, #147 ) ) REPRESENTATION_CONTEXT ( 'NONE', 'WORKASPACE' ) );
#197 =( GEOMETRIC_REPRESENTATION_CONTEXT ( 3 ) GLOBAL_UNCERTAINTY_ASSIGNED_CONTEXT ( ( #117 ) ) GLOBAL_UNIT_ASSIGNED_CONTEXT ( ( #136, #135, #132 ) ) REPRESENTATION_CONTEXT ( 'NONE', 'WORKASPACE' ) );
#198 = EDGE_CURVE ( 'NONE', #91, #90, #37, .T. ) ;
#199 = ADVANCED_FACE ( 'NONE', ( #126 ), #63, .F. ) ;
#200 = ADVANCED_FACE ( 'NONE', ( #189 ), #31, .T. ) ;
#201 = ADVANCED_FACE ( 'NONE', ( #180 ), #27, .F. ) ;
#202 = ADVANCED_FACE ( 'NONE', ( #184 ), #23, .F. ) ;
#203 = ADVANCED_FACE ( 'NONE', ( #185 ), #17, .F. ) ;
#204 = ADVANCED_FACE ( 'NONE', ( #174 ), #14, .F. ) ;
#205 = EDGE_CURVE ( 'NONE', #88, #86, #12, .T. ) ;
#206 = EDGE_CURVE ( 'NONE', #85, #84, #1, .T. ) ;
#207 = EDGE_CURVE ( 'NONE', #90, #89, #150, .T. ) ;
#208 = COLOUR_RGB ( '',0.5686274509803921400, 0.5686274509803921400, 0.5882352941176470800 ) ;
#209 = COLOUR_RGB ( '',0.5686274509803921400, 0.5686274509803921400, 0.5882352941176470800 ) ;
#210 = PRODUCT_DEFINITION_CONTEXT ( 'detailed design', #192, 'design' ) ;
#211 = MANIFOLD_SOLID_BREP ( 'Boss-Extrude1', #123 ) ;
ENDSEC;
END-ISO-10303-21;
