ISO-10303-21;
HEADER;
FILE_DESCRIPTION (( 'STEP AP214' ),
    '1' );
FILE_NAME ('P063BH.step',
    '2012-04-20T23:14:39',
    ( '' ),
    ( '' ),
    'SwSTEP 2.0',
    'SolidWorks 2012',
    '' );
FILE_SCHEMA (( 'AUTOMOTIVE_DESIGN' ));
ENDSEC;

DATA;
#1 = UNCERTAINTY_MEASURE_WITH_UNIT (LENGTH_MEASURE( 1.000000000000000100E-005 ), #87, 'distance_accuracy_value', 'NONE');
#2 = ADVANCED_BREP_SHAPE_REPRESENTATION ( 'P063BH', ( #5, #30 ), #48 ) ;
#3 = UNCERTAINTY_MEASURE_WITH_UNIT (LENGTH_MEASURE( 1.000000000000000100E-005 ), #98, 'distance_accuracy_value', 'NONE');
#4 = UNCERTAINTY_MEASURE_WITH_UNIT (LENGTH_MEASURE( 1.000000000000000100E-005 ), #170, 'distance_accuracy_value', 'NONE');
#5 = MANIFOLD_SOLID_BREP ( 'Boss-Extrude1', #10 ) ;
#6 = PRODUCT_DEFINITION_SHAPE ( 'NONE', 'NONE',  #74 ) ;
#7 = PRODUCT_DEFINITION_CONTEXT ( 'detailed design', #77, 'design' ) ;
#8 = MECHANICAL_DESIGN_GEOMETRIC_PRESENTATION_REPRESENTATION (  '', ( #14 ), #54 ) ;
#9 = PRESENTATION_LAYER_ASSIGNMENT (  '', '', ( #14 ) ) ;
#10 = CLOSED_SHELL ( 'NONE', ( #61, #64, #63, #62, #55, #56 ) ) ;
#11 = AXIS2_PLACEMENT_3D ( 'NONE', #162, #161, #160 ) ;
#12 = AXIS2_PLACEMENT_3D ( 'NONE', #166, #165, #164 ) ;
#13 = FACE_OUTER_BOUND ( 'NONE', #196, .T. ) ;
#14 = STYLED_ITEM ( 'NONE', ( #172 ), #5 ) ;
#15 = FACE_OUTER_BOUND ( 'NONE', #208, .T. ) ;
#16 = FACE_OUTER_BOUND ( 'NONE', #198, .T. ) ;
#17 = LENGTH_MEASURE_WITH_UNIT ( LENGTH_MEASURE( 0.02539999999999999900 ), #171 );
#18 = VECTOR ( 'NONE', #123, 39.37007874015748100 ) ;
#19 = VECTOR ( 'NONE', #120, 39.37007874015748100 ) ;
#20 = AXIS2_PLACEMENT_3D ( 'NONE', #142, #141, #140 ) ;
#21 = VECTOR ( 'NONE', #147, 39.37007874015748100 ) ;
#22 = PRODUCT_DEFINITION_FORMATION_WITH_SPECIFIED_SOURCE ( 'ANY', '', #53, .NOT_KNOWN. ) ;
#23 = VECTOR ( 'NONE', #129, 39.37007874015748100 ) ;
#24 = VECTOR ( 'NONE', #153, 39.37007874015748100 ) ;
#25 = FACE_OUTER_BOUND ( 'NONE', #201, .T. ) ;
#26 = VECTOR ( 'NONE', #150, 39.37007874015748100 ) ;
#27 = AXIS2_PLACEMENT_3D ( 'NONE', #134, #133, #132 ) ;
#28 = LENGTH_MEASURE_WITH_UNIT ( LENGTH_MEASURE( 0.02539999999999999900 ), #99 );
#29 = VECTOR ( 'NONE', #157, 39.37007874015748100 ) ;
#30 = AXIS2_PLACEMENT_3D ( 'NONE', #84, #83, #82 ) ;
#31 = VECTOR ( 'NONE', #126, 39.37007874015748100 ) ;
#32 = AXIS2_PLACEMENT_3D ( 'NONE', #146, #145, #144 ) ;
#33 = LENGTH_MEASURE_WITH_UNIT ( LENGTH_MEASURE( 0.02539999999999999900 ), #88 );
#34 = FACE_OUTER_BOUND ( 'NONE', #197, .T. ) ;
#35 = MECHANICAL_DESIGN_GEOMETRIC_PRESENTATION_REPRESENTATION (  '', ( #38 ), #49 ) ;
#36 = AXIS2_PLACEMENT_3D ( 'NONE', #138, #137, #136 ) ;
#37 = PRESENTATION_LAYER_ASSIGNMENT (  '', '', ( #38 ) ) ;
#38 = STYLED_ITEM ( 'NONE', ( #89 ), #2 ) ;
#39 = FACE_OUTER_BOUND ( 'NONE', #206, .T. ) ;
#40 = VECTOR ( 'NONE', #108, 39.37007874015748100 ) ;
#41 = VECTOR ( 'NONE', #111, 39.37007874015748100 ) ;
#42 = VECTOR ( 'NONE', #114, 39.37007874015748100 ) ;
#43 = VECTOR ( 'NONE', #117, 39.37007874015748100 ) ;
#44 = ORIENTED_EDGE ( 'NONE', *, *, #57, .T. ) ;
#45 = ORIENTED_EDGE ( 'NONE', *, *, #72, .F. ) ;
#46 = ORIENTED_EDGE ( 'NONE', *, *, #58, .F. ) ;
#47 = ORIENTED_EDGE ( 'NONE', *, *, #69, .T. ) ;
#48 =( GEOMETRIC_REPRESENTATION_CONTEXT ( 3 ) GLOBAL_UNCERTAINTY_ASSIGNED_CONTEXT ( ( #3 ) ) GLOBAL_UNIT_ASSIGNED_CONTEXT ( ( #98, #97, #96 ) ) REPRESENTATION_CONTEXT ( 'NONE', 'WORKASPACE' ) );
#49 =( GEOMETRIC_REPRESENTATION_CONTEXT ( 3 ) GLOBAL_UNCERTAINTY_ASSIGNED_CONTEXT ( ( #1 ) ) GLOBAL_UNIT_ASSIGNED_CONTEXT ( ( #87, #86, #85 ) ) REPRESENTATION_CONTEXT ( 'NONE', 'WORKASPACE' ) );
#50 = DIMENSIONAL_EXPONENTS ( 1.000000000000000000, 0.0000000000000000000, 0.0000000000000000000, 0.0000000000000000000, 0.0000000000000000000, 0.0000000000000000000, 0.0000000000000000000 ) ;
#51 = DIMENSIONAL_EXPONENTS ( 1.000000000000000000, 0.0000000000000000000, 0.0000000000000000000, 0.0000000000000000000, 0.0000000000000000000, 0.0000000000000000000, 0.0000000000000000000 ) ;
#52 = DIMENSIONAL_EXPONENTS ( 1.000000000000000000, 0.0000000000000000000, 0.0000000000000000000, 0.0000000000000000000, 0.0000000000000000000, 0.0000000000000000000, 0.0000000000000000000 ) ;
#53 = PRODUCT ( 'P063BH', 'P063BH', '', ( #80 ) ) ;
#54 =( GEOMETRIC_REPRESENTATION_CONTEXT ( 3 ) GLOBAL_UNCERTAINTY_ASSIGNED_CONTEXT ( ( #4 ) ) GLOBAL_UNIT_ASSIGNED_CONTEXT ( ( #170, #169, #168 ) ) REPRESENTATION_CONTEXT ( 'NONE', 'WORKASPACE' ) );
#55 = ADVANCED_FACE ( 'NONE', ( #15 ), #167, .T. ) ;
#56 = ADVANCED_FACE ( 'NONE', ( #16 ), #163, .F. ) ;
#57 = EDGE_CURVE ( 'NONE', #181, #183, #159, .T. ) ;
#58 = EDGE_CURVE ( 'NONE', #182, #184, #155, .T. ) ;
#59 = EDGE_CURVE ( 'NONE', #183, #178, #152, .T. ) ;
#60 = EDGE_CURVE ( 'NONE', #184, #180, #149, .T. ) ;
#61 = ADVANCED_FACE ( 'NONE', ( #13 ), #156, .F. ) ;
#62 = ADVANCED_FACE ( 'NONE', ( #25 ), #143, .F. ) ;
#63 = ADVANCED_FACE ( 'NONE', ( #39 ), #139, .F. ) ;
#64 = ADVANCED_FACE ( 'NONE', ( #34 ), #135, .F. ) ;
#65 = EDGE_CURVE ( 'NONE', #185, #179, #131, .T. ) ;
#66 = EDGE_CURVE ( 'NONE', #178, #179, #128, .T. ) ;
#67 = EDGE_CURVE ( 'NONE', #180, #185, #125, .T. ) ;
#68 = EDGE_CURVE ( 'NONE', #180, #178, #122, .T. ) ;
#69 = EDGE_CURVE ( 'NONE', #182, #181, #119, .T. ) ;
#70 = EDGE_CURVE ( 'NONE', #179, #181, #116, .T. ) ;
#71 = EDGE_CURVE ( 'NONE', #185, #182, #113, .T. ) ;
#72 = EDGE_CURVE ( 'NONE', #184, #183, #110, .T. ) ;
#73 = COLOUR_RGB ( '',0.5686274509803921400, 0.5686274509803921400, 0.5882352941176470800 ) ;
#74 = PRODUCT_DEFINITION ( 'UNKNOWN', '', #22, #7 ) ;
#75 = COLOUR_RGB ( '',0.5686274509803921400, 0.5686274509803921400, 0.5882352941176470800 ) ;
#76 = PRODUCT_RELATED_PRODUCT_CATEGORY ( 'part', '', ( #53 ) ) ;
#77 = APPLICATION_CONTEXT ( 'automotive_design' ) ;
#78 = APPLICATION_CONTEXT ( 'automotive_design' ) ;
#79 = APPLICATION_PROTOCOL_DEFINITION ( 'draft international standard', 'automotive_design', 1998, #77 ) ;
#80 = PRODUCT_CONTEXT ( 'NONE', #78, 'mechanical' ) ;
#81 = SHAPE_DEFINITION_REPRESENTATION ( #6, #2 ) ;
#82 = DIRECTION ( 'NONE',  ( 1.000000000000000000, 0.0000000000000000000, 0.0000000000000000000 ) ) ;
#83 = DIRECTION ( 'NONE',  ( 0.0000000000000000000, 0.0000000000000000000, 1.000000000000000000 ) ) ;
#84 = CARTESIAN_POINT ( 'NONE',  ( 0.0000000000000000000, 0.0000000000000000000, 0.0000000000000000000 ) ) ;
#85 =( NAMED_UNIT ( * ) SI_UNIT ( $, .STERADIAN. ) SOLID_ANGLE_UNIT ( ) );
#86 =( NAMED_UNIT ( * ) PLANE_ANGLE_UNIT ( ) SI_UNIT ( $, .RADIAN. ) );
#87 =( CONVERSION_BASED_UNIT ( 'INCH', #33 ) LENGTH_UNIT ( ) NAMED_UNIT ( #51 ) );
#88 =( LENGTH_UNIT ( ) NAMED_UNIT ( * ) SI_UNIT ( $, .METRE. ) );
#89 = PRESENTATION_STYLE_ASSIGNMENT (( #90 ) ) ;
#90 = SURFACE_STYLE_USAGE ( .BOTH. , #91 ) ;
#91 = SURFACE_SIDE_STYLE ('',( #92 ) ) ;
#92 = SURFACE_STYLE_FILL_AREA ( #93 ) ;
#93 = FILL_AREA_STYLE ('',( #94 ) ) ;
#94 = FILL_AREA_STYLE_COLOUR ( '', #75 ) ;
#95 = APPLICATION_PROTOCOL_DEFINITION ( 'draft international standard', 'automotive_design', 1998, #78 ) ;
#96 =( NAMED_UNIT ( * ) SI_UNIT ( $, .STERADIAN. ) SOLID_ANGLE_UNIT ( ) );
#97 =( NAMED_UNIT ( * ) PLANE_ANGLE_UNIT ( ) SI_UNIT ( $, .RADIAN. ) );
#98 =( CONVERSION_BASED_UNIT ( 'INCH', #28 ) LENGTH_UNIT ( ) NAMED_UNIT ( #52 ) );
#99 =( LENGTH_UNIT ( ) NAMED_UNIT ( * ) SI_UNIT ( $, .METRE. ) );
#100 = CARTESIAN_POINT ( 'NONE',  ( 0.0000000000000000000, 0.06250000000000000000, 0.0000000000000000000 ) ) ;
#101 = CARTESIAN_POINT ( 'NONE',  ( 1.000000000000000000, 0.06250000000000000000, -0.2500000000000000000 ) ) ;
#102 = CARTESIAN_POINT ( 'NONE',  ( 1.000000000000000000, 0.0000000000000000000, -0.2500000000000000000 ) ) ;
#103 = CARTESIAN_POINT ( 'NONE',  ( 1.000000000000000000, 0.06250000000000000000, 0.0000000000000000000 ) ) ;
#104 = CARTESIAN_POINT ( 'NONE',  ( 1.000000000000000000, 0.0000000000000000000, 0.0000000000000000000 ) ) ;
#105 = CARTESIAN_POINT ( 'NONE',  ( 0.0000000000000000000, 0.06250000000000000000, -0.2500000000000000000 ) ) ;
#106 = CARTESIAN_POINT ( 'NONE',  ( 0.0000000000000000000, 0.0000000000000000000, 0.0000000000000000000 ) ) ;
#107 = CARTESIAN_POINT ( 'NONE',  ( 0.0000000000000000000, 0.0000000000000000000, -0.2500000000000000000 ) ) ;
#108 = DIRECTION ( 'NONE',  ( -0.0000000000000000000, -1.000000000000000000, -0.0000000000000000000 ) ) ;
#109 = CARTESIAN_POINT ( 'NONE',  ( 1.000000000000000000, 0.06250000000000000000, -0.2500000000000000000 ) ) ;
#110 = LINE ( 'NONE', #109, #40 ) ;
#111 = DIRECTION ( 'NONE',  ( 1.000000000000000000, 0.0000000000000000000, 0.0000000000000000000 ) ) ;
#112 = CARTESIAN_POINT ( 'NONE',  ( 0.0000000000000000000, 0.06250000000000000000, 0.0000000000000000000 ) ) ;
#113 = LINE ( 'NONE', #112, #41 ) ;
#114 = DIRECTION ( 'NONE',  ( 1.000000000000000000, 0.0000000000000000000, 0.0000000000000000000 ) ) ;
#115 = CARTESIAN_POINT ( 'NONE',  ( 0.0000000000000000000, 0.0000000000000000000, 0.0000000000000000000 ) ) ;
#116 = LINE ( 'NONE', #115, #42 ) ;
#117 = DIRECTION ( 'NONE',  ( -0.0000000000000000000, -1.000000000000000000, -0.0000000000000000000 ) ) ;
#118 = CARTESIAN_POINT ( 'NONE',  ( 1.000000000000000000, 0.06250000000000000000, 0.0000000000000000000 ) ) ;
#119 = LINE ( 'NONE', #118, #43 ) ;
#120 = DIRECTION ( 'NONE',  ( -0.0000000000000000000, -1.000000000000000000, -0.0000000000000000000 ) ) ;
#121 = CARTESIAN_POINT ( 'NONE',  ( 0.0000000000000000000, 0.06250000000000000000, -0.2500000000000000000 ) ) ;
#122 = LINE ( 'NONE', #121, #19 ) ;
#123 = DIRECTION ( 'NONE',  ( 0.0000000000000000000, 0.0000000000000000000, 1.000000000000000000 ) ) ;
#124 = CARTESIAN_POINT ( 'NONE',  ( 0.0000000000000000000, 0.06250000000000000000, -0.2500000000000000000 ) ) ;
#125 = LINE ( 'NONE', #124, #18 ) ;
#126 = DIRECTION ( 'NONE',  ( 0.0000000000000000000, 0.0000000000000000000, 1.000000000000000000 ) ) ;
#127 = CARTESIAN_POINT ( 'NONE',  ( 0.0000000000000000000, 0.0000000000000000000, -0.2500000000000000000 ) ) ;
#128 = LINE ( 'NONE', #127, #31 ) ;
#129 = DIRECTION ( 'NONE',  ( -0.0000000000000000000, -1.000000000000000000, -0.0000000000000000000 ) ) ;
#130 = CARTESIAN_POINT ( 'NONE',  ( 0.0000000000000000000, 0.06250000000000000000, 0.0000000000000000000 ) ) ;
#131 = LINE ( 'NONE', #130, #23 ) ;
#132 = DIRECTION ( 'NONE',  ( -1.000000000000000000, 0.0000000000000000000, -0.0000000000000000000 ) ) ;
#133 = DIRECTION ( 'NONE',  ( 0.0000000000000000000, 0.0000000000000000000, -1.000000000000000000 ) ) ;
#134 = CARTESIAN_POINT ( 'NONE',  ( 0.0000000000000000000, 0.06250000000000000000, 0.0000000000000000000 ) ) ;
#135 = PLANE ( 'NONE',  #27 ) ;
#136 = DIRECTION ( 'NONE',  ( 0.0000000000000000000, 0.0000000000000000000, 1.000000000000000000 ) ) ;
#137 = DIRECTION ( 'NONE',  ( -1.000000000000000000, 0.0000000000000000000, 0.0000000000000000000 ) ) ;
#138 = CARTESIAN_POINT ( 'NONE',  ( 1.000000000000000000, 0.06250000000000000000, 0.0000000000000000000 ) ) ;
#139 = PLANE ( 'NONE',  #36 ) ;
#140 = DIRECTION ( 'NONE',  ( 1.000000000000000000, 0.0000000000000000000, -0.0000000000000000000 ) ) ;
#141 = DIRECTION ( 'NONE',  ( 0.0000000000000000000, -0.0000000000000000000, 1.000000000000000000 ) ) ;
#142 = CARTESIAN_POINT ( 'NONE',  ( 1.000000000000000000, 0.06250000000000000000, -0.2500000000000000000 ) ) ;
#143 = PLANE ( 'NONE',  #20 ) ;
#144 = DIRECTION ( 'NONE',  ( 0.0000000000000000000, 0.0000000000000000000, -1.000000000000000000 ) ) ;
#145 = DIRECTION ( 'NONE',  ( 1.000000000000000000, 0.0000000000000000000, 0.0000000000000000000 ) ) ;
#146 = CARTESIAN_POINT ( 'NONE',  ( 0.0000000000000000000, 0.06250000000000000000, -0.2500000000000000000 ) ) ;
#147 = DIRECTION ( 'NONE',  ( -1.000000000000000000, 0.0000000000000000000, 0.0000000000000000000 ) ) ;
#148 = CARTESIAN_POINT ( 'NONE',  ( 1.000000000000000000, 0.06250000000000000000, -0.2500000000000000000 ) ) ;
#149 = LINE ( 'NONE', #148, #21 ) ;
#150 = DIRECTION ( 'NONE',  ( -1.000000000000000000, 0.0000000000000000000, 0.0000000000000000000 ) ) ;
#151 = CARTESIAN_POINT ( 'NONE',  ( 1.000000000000000000, 0.0000000000000000000, -0.2500000000000000000 ) ) ;
#152 = LINE ( 'NONE', #151, #26 ) ;
#153 = DIRECTION ( 'NONE',  ( 0.0000000000000000000, 0.0000000000000000000, -1.000000000000000000 ) ) ;
#154 = CARTESIAN_POINT ( 'NONE',  ( 1.000000000000000000, 0.06250000000000000000, 0.0000000000000000000 ) ) ;
#155 = LINE ( 'NONE', #154, #24 ) ;
#156 = PLANE ( 'NONE',  #32 ) ;
#157 = DIRECTION ( 'NONE',  ( 0.0000000000000000000, 0.0000000000000000000, -1.000000000000000000 ) ) ;
#158 = CARTESIAN_POINT ( 'NONE',  ( 1.000000000000000000, 0.0000000000000000000, 0.0000000000000000000 ) ) ;
#159 = LINE ( 'NONE', #158, #29 ) ;
#160 = DIRECTION ( 'NONE',  ( 0.0000000000000000000, -0.0000000000000000000, 1.000000000000000000 ) ) ;
#161 = DIRECTION ( 'NONE',  ( 0.0000000000000000000, 1.000000000000000000, 0.0000000000000000000 ) ) ;
#162 = CARTESIAN_POINT ( 'NONE',  ( 0.0000000000000000000, 0.0000000000000000000, 0.0000000000000000000 ) ) ;
#163 = PLANE ( 'NONE',  #11 ) ;
#164 = DIRECTION ( 'NONE',  ( 0.0000000000000000000, -0.0000000000000000000, 1.000000000000000000 ) ) ;
#165 = DIRECTION ( 'NONE',  ( 0.0000000000000000000, 1.000000000000000000, 0.0000000000000000000 ) ) ;
#166 = CARTESIAN_POINT ( 'NONE',  ( 0.0000000000000000000, 0.06250000000000000000, 0.0000000000000000000 ) ) ;
#167 = PLANE ( 'NONE',  #12 ) ;
#168 =( NAMED_UNIT ( * ) SI_UNIT ( $, .STERADIAN. ) SOLID_ANGLE_UNIT ( ) );
#169 =( NAMED_UNIT ( * ) PLANE_ANGLE_UNIT ( ) SI_UNIT ( $, .RADIAN. ) );
#170 =( CONVERSION_BASED_UNIT ( 'INCH', #17 ) LENGTH_UNIT ( ) NAMED_UNIT ( #50 ) );
#171 =( LENGTH_UNIT ( ) NAMED_UNIT ( * ) SI_UNIT ( $, .METRE. ) );
#172 = PRESENTATION_STYLE_ASSIGNMENT (( #173 ) ) ;
#173 = SURFACE_STYLE_USAGE ( .BOTH. , #174 ) ;
#174 = SURFACE_SIDE_STYLE ('',( #175 ) ) ;
#175 = SURFACE_STYLE_FILL_AREA ( #176 ) ;
#176 = FILL_AREA_STYLE ('',( #177 ) ) ;
#177 = FILL_AREA_STYLE_COLOUR ( '', #73 ) ;
#178 = VERTEX_POINT ( 'NONE', #107 ) ;
#179 = VERTEX_POINT ( 'NONE', #106 ) ;
#180 = VERTEX_POINT ( 'NONE', #105 ) ;
#181 = VERTEX_POINT ( 'NONE', #104 ) ;
#182 = VERTEX_POINT ( 'NONE', #103 ) ;
#183 = VERTEX_POINT ( 'NONE', #102 ) ;
#184 = VERTEX_POINT ( 'NONE', #101 ) ;
#185 = VERTEX_POINT ( 'NONE', #100 ) ;
#186 = ORIENTED_EDGE ( 'NONE', *, *, #57, .F. ) ;
#187 = ORIENTED_EDGE ( 'NONE', *, *, #59, .F. ) ;
#188 = ORIENTED_EDGE ( 'NONE', *, *, #66, .F. ) ;
#189 = ORIENTED_EDGE ( 'NONE', *, *, #70, .F. ) ;
#190 = ORIENTED_EDGE ( 'NONE', *, *, #58, .T. ) ;
#191 = ORIENTED_EDGE ( 'NONE', *, *, #71, .T. ) ;
#192 = ORIENTED_EDGE ( 'NONE', *, *, #67, .T. ) ;
#193 = ORIENTED_EDGE ( 'NONE', *, *, #72, .T. ) ;
#194 = ORIENTED_EDGE ( 'NONE', *, *, #67, .F. ) ;
#195 = ORIENTED_EDGE ( 'NONE', *, *, #70, .T. ) ;
#196 = EDGE_LOOP ( 'NONE', ( #199, #204, #194, #200 ) ) ;
#197 = EDGE_LOOP ( 'NONE', ( #195, #210, #202, #211 ) ) ;
#198 = EDGE_LOOP ( 'NONE', ( #188, #187, #186, #189 ) ) ;
#199 = ORIENTED_EDGE ( 'NONE', *, *, #66, .T. ) ;
#200 = ORIENTED_EDGE ( 'NONE', *, *, #68, .T. ) ;
#201 = EDGE_LOOP ( 'NONE', ( #209, #207, #203, #193 ) ) ;
#202 = ORIENTED_EDGE ( 'NONE', *, *, #71, .F. ) ;
#203 = ORIENTED_EDGE ( 'NONE', *, *, #60, .F. ) ;
#204 = ORIENTED_EDGE ( 'NONE', *, *, #65, .F. ) ;
#205 = ORIENTED_EDGE ( 'NONE', *, *, #60, .T. ) ;
#206 = EDGE_LOOP ( 'NONE', ( #44, #45, #46, #47 ) ) ;
#207 = ORIENTED_EDGE ( 'NONE', *, *, #68, .F. ) ;
#208 = EDGE_LOOP ( 'NONE', ( #192, #191, #190, #205 ) ) ;
#209 = ORIENTED_EDGE ( 'NONE', *, *, #59, .T. ) ;
#210 = ORIENTED_EDGE ( 'NONE', *, *, #69, .F. ) ;
#211 = ORIENTED_EDGE ( 'NONE', *, *, #65, .T. ) ;
ENDSEC;
END-ISO-10303-21;
