ISO-10303-21;
HEADER;
FILE_DESCRIPTION (( 'STEP AP214' ),
    '1' );
FILE_NAME ('P063C2H.step',
    '2012-04-20T20:59:56',
    ( '' ),
    ( '' ),
    'SwSTEP 2.0',
    'SolidWorks 2012',
    '' );
FILE_SCHEMA (( 'AUTOMOTIVE_DESIGN' ));
ENDSEC;

DATA;
#1 = UNCERTAINTY_MEASURE_WITH_UNIT (LENGTH_MEASURE( 1.000000000000000100E-005 ), #167, 'distance_accuracy_value', 'NONE');
#2 = UNCERTAINTY_MEASURE_WITH_UNIT (LENGTH_MEASURE( 1.000000000000000100E-005 ), #152, 'distance_accuracy_value', 'NONE');
#3 = UNCERTAINTY_MEASURE_WITH_UNIT (LENGTH_MEASURE( 1.000000000000000100E-005 ), #18, 'distance_accuracy_value', 'NONE');
#4 = ADVANCED_BREP_SHAPE_REPRESENTATION ( 'P063C2H', ( #192, #111 ), #195 ) ;
#5 = CARTESIAN_POINT ( 'NONE',  ( 0.4374999999999997800, 0.06250000000000000000, -0.9999999999999998900 ) ) ;
#6 = PLANE ( 'NONE',  #119 ) ;
#7 = DIRECTION ( 'NONE',  ( 1.000000000000000000, 0.0000000000000000000, -0.0000000000000000000 ) ) ;
#8 = DIRECTION ( 'NONE',  ( 0.0000000000000000000, 0.0000000000000000000, 1.000000000000000000 ) ) ;
#9 = CARTESIAN_POINT ( 'NONE',  ( 0.0000000000000000000, 0.06250000000000000000, -0.9999999999999998900 ) ) ;
#10 = PLANE ( 'NONE',  #132 ) ;
#11 = DIRECTION ( 'NONE',  ( 0.0000000000000000000, 0.0000000000000000000, -1.000000000000000000 ) ) ;
#12 = DIRECTION ( 'NONE',  ( 1.000000000000000000, -0.0000000000000000000, 0.0000000000000000000 ) ) ;
#13 = CARTESIAN_POINT ( 'NONE',  ( 0.0000000000000000000, 0.06250000000000000000, 0.0000000000000000000 ) ) ;
#14 = PLANE ( 'NONE',  #131 ) ;
#15 = EDGE_LOOP ( 'NONE', ( #75, #74, #76, #72 ) ) ;
#16 =( NAMED_UNIT ( * ) SI_UNIT ( $, .STERADIAN. ) SOLID_ANGLE_UNIT ( ) );
#17 =( NAMED_UNIT ( * ) PLANE_ANGLE_UNIT ( ) SI_UNIT ( $, .RADIAN. ) );
#18 =( CONVERSION_BASED_UNIT ( 'INCH', #128 ) LENGTH_UNIT ( ) NAMED_UNIT ( #97 ) );
#19 =( LENGTH_UNIT ( ) NAMED_UNIT ( * ) SI_UNIT ( $, .METRE. ) );
#20 = PRESENTATION_STYLE_ASSIGNMENT (( #21 ) ) ;
#21 = SURFACE_STYLE_USAGE ( .BOTH. , #22 ) ;
#22 = SURFACE_SIDE_STYLE ('',( #23 ) ) ;
#23 = SURFACE_STYLE_FILL_AREA ( #24 ) ;
#24 = FILL_AREA_STYLE ('',( #25 ) ) ;
#25 = FILL_AREA_STYLE_COLOUR ( '', #208 ) ;
#26 = DIRECTION ( 'NONE',  ( 0.0000000000000000000, 0.0000000000000000000, -1.000000000000000000 ) ) ;
#27 = DIRECTION ( 'NONE',  ( 0.0000000000000000000, -1.000000000000000000, 0.0000000000000000000 ) ) ;
#28 = CARTESIAN_POINT ( 'NONE',  ( 0.0000000000000000000, 0.06250000000000000000, 0.0000000000000000000 ) ) ;
#29 = PLANE ( 'NONE',  #120 ) ;
#30 = DIRECTION ( 'NONE',  ( 0.0000000000000000000, 0.0000000000000000000, -1.000000000000000000 ) ) ;
#31 = DIRECTION ( 'NONE',  ( 0.0000000000000000000, -1.000000000000000000, 0.0000000000000000000 ) ) ;
#32 = CARTESIAN_POINT ( 'NONE',  ( 0.0000000000000000000, 0.0000000000000000000, 0.0000000000000000000 ) ) ;
#33 = DIRECTION ( 'NONE',  ( -0.0000000000000000000, -1.000000000000000000, -0.0000000000000000000 ) ) ;
#34 = CARTESIAN_POINT ( 'NONE',  ( 0.4374999999999997800, 0.06250000000000000000, -0.9999999999999998900 ) ) ;
#35 = LINE ( 'NONE', #34, #139 ) ;
#36 = DIRECTION ( 'NONE',  ( -0.0000000000000000000, -1.000000000000000000, -0.0000000000000000000 ) ) ;
#37 = CARTESIAN_POINT ( 'NONE',  ( 0.0000000000000000000, 0.06250000000000000000, 0.0000000000000000000 ) ) ;
#38 = LINE ( 'NONE', #37, #134 ) ;
#39 = DIRECTION ( 'NONE',  ( 1.000000000000000000, -0.0000000000000000000, 1.574545884618026000E-016 ) ) ;
#40 = CARTESIAN_POINT ( 'NONE',  ( 0.4375000000000000000, 0.06250000000000000000, 6.888638245203864400E-017 ) ) ;
#41 = LINE ( 'NONE', #40, #137 ) ;
#42 = DIRECTION ( 'NONE',  ( 1.000000000000000000, -0.0000000000000000000, 1.574545884618026000E-016 ) ) ;
#43 = CARTESIAN_POINT ( 'NONE',  ( 0.4375000000000000000, 0.0000000000000000000, 6.888638245203864400E-017 ) ) ;
#44 = LINE ( 'NONE', #43, #140 ) ;
#45 = PLANE ( 'NONE',  #141 ) ;
#46 = DIRECTION ( 'NONE',  ( -2.048885995248197700E-016, -0.0000000000000000000, -1.000000000000000000 ) ) ;
#47 = CARTESIAN_POINT ( 'NONE',  ( 0.4374999999999997800, 0.0000000000000000000, -0.9999999999999998900 ) ) ;
#48 = LINE ( 'NONE', #47, #136 ) ;
#49 = CARTESIAN_POINT ( 'NONE',  ( 0.4374999999999997800, 0.06250000000000000000, -0.9999999999999998900 ) ) ;
#50 = CARTESIAN_POINT ( 'NONE',  ( 0.0000000000000000000, 0.0000000000000000000, 0.0000000000000000000 ) ) ;
#51 = CARTESIAN_POINT ( 'NONE',  ( 0.0000000000000000000, 0.06250000000000000000, 0.0000000000000000000 ) ) ;
#52 = CARTESIAN_POINT ( 'NONE',  ( 0.4375000000000000000, 0.0000000000000000000, 6.888638245203864400E-017 ) ) ;
#53 = CARTESIAN_POINT ( 'NONE',  ( 0.4374999999999997800, 0.0000000000000000000, -0.9999999999999998900 ) ) ;
#54 = CARTESIAN_POINT ( 'NONE',  ( 0.4375000000000000000, 0.06250000000000000000, 6.888638245203864400E-017 ) ) ;
#55 = CARTESIAN_POINT ( 'NONE',  ( 0.0000000000000000000, 0.0000000000000000000, -0.9999999999999998900 ) ) ;
#56 = CARTESIAN_POINT ( 'NONE',  ( 0.0000000000000000000, 0.06250000000000000000, -0.9999999999999998900 ) ) ;
#57 = VERTEX_POINT ( 'NONE', #56 ) ;
#58 = VERTEX_POINT ( 'NONE', #55 ) ;
#59 = VERTEX_POINT ( 'NONE', #54 ) ;
#60 = VERTEX_POINT ( 'NONE', #53 ) ;
#61 = VERTEX_POINT ( 'NONE', #52 ) ;
#62 = VERTEX_POINT ( 'NONE', #51 ) ;
#63 = VERTEX_POINT ( 'NONE', #50 ) ;
#64 = VERTEX_POINT ( 'NONE', #49 ) ;
#65 = ORIENTED_EDGE ( 'NONE', *, *, #204, .F. ) ;
#66 = ORIENTED_EDGE ( 'NONE', *, *, #206, .F. ) ;
#67 = ORIENTED_EDGE ( 'NONE', *, *, #100, .F. ) ;
#68 = ORIENTED_EDGE ( 'NONE', *, *, #98, .F. ) ;
#69 = ORIENTED_EDGE ( 'NONE', *, *, #205, .T. ) ;
#70 = ORIENTED_EDGE ( 'NONE', *, *, #202, .T. ) ;
#71 = ORIENTED_EDGE ( 'NONE', *, *, #101, .T. ) ;
#72 = ORIENTED_EDGE ( 'NONE', *, *, #203, .T. ) ;
#73 = ORIENTED_EDGE ( 'NONE', *, *, #207, .T. ) ;
#74 = ORIENTED_EDGE ( 'NONE', *, *, #102, .F. ) ;
#75 = ORIENTED_EDGE ( 'NONE', *, *, #206, .T. ) ;
#76 = ORIENTED_EDGE ( 'NONE', *, *, #207, .F. ) ;
#77 = ORIENTED_EDGE ( 'NONE', *, *, #103, .T. ) ;
#78 = ORIENTED_EDGE ( 'NONE', *, *, #203, .F. ) ;
#79 = ORIENTED_EDGE ( 'NONE', *, *, #205, .F. ) ;
#80 = ORIENTED_EDGE ( 'NONE', *, *, #204, .T. ) ;
#81 = ORIENTED_EDGE ( 'NONE', *, *, #201, .T. ) ;
#82 = ORIENTED_EDGE ( 'NONE', *, *, #103, .F. ) ;
#83 = ORIENTED_EDGE ( 'NONE', *, *, #98, .T. ) ;
#84 = ORIENTED_EDGE ( 'NONE', *, *, #102, .T. ) ;
#85 = ORIENTED_EDGE ( 'NONE', *, *, #201, .F. ) ;
#86 = ORIENTED_EDGE ( 'NONE', *, *, #101, .F. ) ;
#87 = ORIENTED_EDGE ( 'NONE', *, *, #100, .T. ) ;
#88 = ORIENTED_EDGE ( 'NONE', *, *, #202, .F. ) ;
#89 = EDGE_LOOP ( 'NONE', ( #83, #82, #88, #81 ) ) ;
#90 = EDGE_LOOP ( 'NONE', ( #80, #78, #79, #77 ) ) ;
#91 = EDGE_LOOP ( 'NONE', ( #71, #70, #69, #73 ) ) ;
#92 = EDGE_LOOP ( 'NONE', ( #67, #66, #65, #68 ) ) ;
#93 = EDGE_LOOP ( 'NONE', ( #87, #85, #86, #84 ) ) ;
#94 = DIMENSIONAL_EXPONENTS ( 1.000000000000000000, 0.0000000000000000000, 0.0000000000000000000, 0.0000000000000000000, 0.0000000000000000000, 0.0000000000000000000, 0.0000000000000000000 ) ;
#95 = DIMENSIONAL_EXPONENTS ( 1.000000000000000000, 0.0000000000000000000, 0.0000000000000000000, 0.0000000000000000000, 0.0000000000000000000, 0.0000000000000000000, 0.0000000000000000000 ) ;
#96 = PRODUCT ( 'P063C2H', 'P063C2H', '', ( #145 ) ) ;
#97 = DIMENSIONAL_EXPONENTS ( 1.000000000000000000, 0.0000000000000000000, 0.0000000000000000000, 0.0000000000000000000, 0.0000000000000000000, 0.0000000000000000000, 0.0000000000000000000 ) ;
#98 = EDGE_CURVE ( 'NONE', #61, #60, #48, .T. ) ;
#99 = PRODUCT_DEFINITION ( 'UNKNOWN', '', #110, #191 ) ;
#100 = EDGE_CURVE ( 'NONE', #63, #61, #44, .T. ) ;
#101 = EDGE_CURVE ( 'NONE', #62, #59, #41, .T. ) ;
#102 = EDGE_CURVE ( 'NONE', #62, #63, #38, .T. ) ;
#103 = EDGE_CURVE ( 'NONE', #64, #60, #35, .T. ) ;
#104 = ADVANCED_FACE ( 'NONE', ( #133 ), #45, .T. ) ;
#105 = ADVANCED_FACE ( 'NONE', ( #112 ), #29, .F. ) ;
#106 = VECTOR ( 'NONE', #169, 39.37007874015748100 ) ;
#107 = VECTOR ( 'NONE', #172, 39.37007874015748100 ) ;
#108 = VECTOR ( 'NONE', #184, 39.37007874015748100 ) ;
#109 = VECTOR ( 'NONE', #175, 39.37007874015748100 ) ;
#110 = PRODUCT_DEFINITION_FORMATION_WITH_SPECIFIED_SOURCE ( 'ANY', '', #96, .NOT_KNOWN. ) ;
#111 = AXIS2_PLACEMENT_3D ( 'NONE', #147, #146, #165 ) ;
#112 = FACE_OUTER_BOUND ( 'NONE', #91, .T. ) ;
#113 = STYLED_ITEM ( 'NONE', ( #153 ), #4 ) ;
#114 = MECHANICAL_DESIGN_GEOMETRIC_PRESENTATION_REPRESENTATION (  '', ( #113 ), #196 ) ;
#115 = LENGTH_MEASURE_WITH_UNIT ( LENGTH_MEASURE( 0.02539999999999999900 ), #150 );
#116 = PRESENTATION_LAYER_ASSIGNMENT (  '', '', ( #113 ) ) ;
#117 = FACE_OUTER_BOUND ( 'NONE', #93, .T. ) ;
#118 = FACE_OUTER_BOUND ( 'NONE', #89, .T. ) ;
#119 = AXIS2_PLACEMENT_3D ( 'NONE', #5, #187, #148 ) ;
#120 = AXIS2_PLACEMENT_3D ( 'NONE', #28, #27, #26 ) ;
#121 = AXIS2_PLACEMENT_3D ( 'NONE', #142, #163, #162 ) ;
#122 = STYLED_ITEM ( 'NONE', ( #20 ), #192 ) ;
#123 = VECTOR ( 'NONE', #181, 39.37007874015748100 ) ;
#124 = VECTOR ( 'NONE', #178, 39.37007874015748100 ) ;
#125 = VECTOR ( 'NONE', #188, 39.37007874015748100 ) ;
#126 = PRESENTATION_LAYER_ASSIGNMENT (  '', '', ( #122 ) ) ;
#127 = MECHANICAL_DESIGN_GEOMETRIC_PRESENTATION_REPRESENTATION (  '', ( #122 ), #194 ) ;
#128 = LENGTH_MEASURE_WITH_UNIT ( LENGTH_MEASURE( 0.02539999999999999900 ), #19 );
#129 = FACE_OUTER_BOUND ( 'NONE', #90, .T. ) ;
#130 = LENGTH_MEASURE_WITH_UNIT ( LENGTH_MEASURE( 0.02539999999999999900 ), #168 );
#131 = AXIS2_PLACEMENT_3D ( 'NONE', #13, #12, #11 ) ;
#132 = AXIS2_PLACEMENT_3D ( 'NONE', #9, #8, #7 ) ;
#133 = FACE_OUTER_BOUND ( 'NONE', #92, .T. ) ;
#134 = VECTOR ( 'NONE', #36, 39.37007874015748100 ) ;
#135 = CLOSED_SHELL ( 'NONE', ( #200, #199, #198, #197, #105, #104 ) ) ;
#136 = VECTOR ( 'NONE', #46, 39.37007874015748100 ) ;
#137 = VECTOR ( 'NONE', #39, 39.37007874015748100 ) ;
#138 = FACE_OUTER_BOUND ( 'NONE', #15, .T. ) ;
#139 = VECTOR ( 'NONE', #33, 39.37007874015748100 ) ;
#140 = VECTOR ( 'NONE', #42, 39.37007874015748100 ) ;
#141 = AXIS2_PLACEMENT_3D ( 'NONE', #32, #31, #30 ) ;
#142 = CARTESIAN_POINT ( 'NONE',  ( 0.4375000000000000000, 0.06250000000000000000, 6.888638245203864400E-017 ) ) ;
#143 = PLANE ( 'NONE',  #121 ) ;
#144 = APPLICATION_PROTOCOL_DEFINITION ( 'draft international standard', 'automotive_design', 1998, #211 ) ;
#145 = PRODUCT_CONTEXT ( 'NONE', #210, 'mechanical' ) ;
#146 = DIRECTION ( 'NONE',  ( 0.0000000000000000000, 0.0000000000000000000, 1.000000000000000000 ) ) ;
#147 = CARTESIAN_POINT ( 'NONE',  ( 0.0000000000000000000, 0.0000000000000000000, 0.0000000000000000000 ) ) ;
#148 = DIRECTION ( 'NONE',  ( 2.048885995248197700E-016, 0.0000000000000000000, 1.000000000000000000 ) ) ;
#149 =( NAMED_UNIT ( * ) PLANE_ANGLE_UNIT ( ) SI_UNIT ( $, .RADIAN. ) );
#150 =( LENGTH_UNIT ( ) NAMED_UNIT ( * ) SI_UNIT ( $, .METRE. ) );
#151 =( NAMED_UNIT ( * ) SI_UNIT ( $, .STERADIAN. ) SOLID_ANGLE_UNIT ( ) );
#152 =( CONVERSION_BASED_UNIT ( 'INCH', #115 ) LENGTH_UNIT ( ) NAMED_UNIT ( #95 ) );
#153 = PRESENTATION_STYLE_ASSIGNMENT (( #155 ) ) ;
#154 = APPLICATION_PROTOCOL_DEFINITION ( 'draft international standard', 'automotive_design', 1998, #210 ) ;
#155 = SURFACE_STYLE_USAGE ( .BOTH. , #156 ) ;
#156 = SURFACE_SIDE_STYLE ('',( #157 ) ) ;
#157 = SURFACE_STYLE_FILL_AREA ( #158 ) ;
#158 = FILL_AREA_STYLE ('',( #160 ) ) ;
#159 = SHAPE_DEFINITION_REPRESENTATION ( #190, #4 ) ;
#160 = FILL_AREA_STYLE_COLOUR ( '', #209 ) ;
#161 = LINE ( 'NONE', #189, #125 ) ;
#162 = DIRECTION ( 'NONE',  ( -1.000000000000000000, 0.0000000000000000000, -1.574545884618025700E-016 ) ) ;
#163 = DIRECTION ( 'NONE',  ( 1.574545884618025700E-016, 0.0000000000000000000, -1.000000000000000000 ) ) ;
#164 =( NAMED_UNIT ( * ) SI_UNIT ( $, .STERADIAN. ) SOLID_ANGLE_UNIT ( ) );
#165 = DIRECTION ( 'NONE',  ( 1.000000000000000000, 0.0000000000000000000, 0.0000000000000000000 ) ) ;
#166 =( NAMED_UNIT ( * ) PLANE_ANGLE_UNIT ( ) SI_UNIT ( $, .RADIAN. ) );
#167 =( CONVERSION_BASED_UNIT ( 'INCH', #130 ) LENGTH_UNIT ( ) NAMED_UNIT ( #94 ) );
#168 =( LENGTH_UNIT ( ) NAMED_UNIT ( * ) SI_UNIT ( $, .METRE. ) );
#169 = DIRECTION ( 'NONE',  ( -0.0000000000000000000, -0.0000000000000000000, 1.000000000000000000 ) ) ;
#170 = CARTESIAN_POINT ( 'NONE',  ( 0.0000000000000000000, 0.06250000000000000000, 0.0000000000000000000 ) ) ;
#171 = LINE ( 'NONE', #170, #106 ) ;
#172 = DIRECTION ( 'NONE',  ( -0.0000000000000000000, -0.0000000000000000000, 1.000000000000000000 ) ) ;
#173 = CARTESIAN_POINT ( 'NONE',  ( 0.0000000000000000000, 0.0000000000000000000, 0.0000000000000000000 ) ) ;
#174 = LINE ( 'NONE', #173, #107 ) ;
#175 = DIRECTION ( 'NONE',  ( -1.000000000000000000, -0.0000000000000000000, -0.0000000000000000000 ) ) ;
#176 = CARTESIAN_POINT ( 'NONE',  ( 0.0000000000000000000, 0.06250000000000000000, -0.9999999999999998900 ) ) ;
#177 = LINE ( 'NONE', #176, #109 ) ;
#178 = DIRECTION ( 'NONE',  ( -1.000000000000000000, -0.0000000000000000000, -0.0000000000000000000 ) ) ;
#179 = CARTESIAN_POINT ( 'NONE',  ( 0.0000000000000000000, 0.0000000000000000000, -0.9999999999999998900 ) ) ;
#180 = LINE ( 'NONE', #179, #124 ) ;
#181 = DIRECTION ( 'NONE',  ( -0.0000000000000000000, -1.000000000000000000, -0.0000000000000000000 ) ) ;
#182 = CARTESIAN_POINT ( 'NONE',  ( 0.0000000000000000000, 0.06250000000000000000, -0.9999999999999998900 ) ) ;
#183 = LINE ( 'NONE', #182, #123 ) ;
#184 = DIRECTION ( 'NONE',  ( -2.048885995248197700E-016, -0.0000000000000000000, -1.000000000000000000 ) ) ;
#185 = CARTESIAN_POINT ( 'NONE',  ( 0.4374999999999997800, 0.06250000000000000000, -0.9999999999999998900 ) ) ;
#186 = LINE ( 'NONE', #185, #108 ) ;
#187 = DIRECTION ( 'NONE',  ( -1.000000000000000000, 0.0000000000000000000, 2.048885995248197700E-016 ) ) ;
#188 = DIRECTION ( 'NONE',  ( -0.0000000000000000000, -1.000000000000000000, -0.0000000000000000000 ) ) ;
#189 = CARTESIAN_POINT ( 'NONE',  ( 0.4375000000000000000, 0.06250000000000000000, 6.888638245203864400E-017 ) ) ;
#190 = PRODUCT_DEFINITION_SHAPE ( 'NONE', 'NONE',  #99 ) ;
#191 = PRODUCT_DEFINITION_CONTEXT ( 'detailed design', #211, 'design' ) ;
#192 = MANIFOLD_SOLID_BREP ( 'Boss-Extrude1', #135 ) ;
#193 = PRODUCT_RELATED_PRODUCT_CATEGORY ( 'part', '', ( #96 ) ) ;
#194 =( GEOMETRIC_REPRESENTATION_CONTEXT ( 3 ) GLOBAL_UNCERTAINTY_ASSIGNED_CONTEXT ( ( #3 ) ) GLOBAL_UNIT_ASSIGNED_CONTEXT ( ( #18, #17, #16 ) ) REPRESENTATION_CONTEXT ( 'NONE', 'WORKASPACE' ) );
#195 =( GEOMETRIC_REPRESENTATION_CONTEXT ( 3 ) GLOBAL_UNCERTAINTY_ASSIGNED_CONTEXT ( ( #1 ) ) GLOBAL_UNIT_ASSIGNED_CONTEXT ( ( #167, #166, #164 ) ) REPRESENTATION_CONTEXT ( 'NONE', 'WORKASPACE' ) );
#196 =( GEOMETRIC_REPRESENTATION_CONTEXT ( 3 ) GLOBAL_UNCERTAINTY_ASSIGNED_CONTEXT ( ( #2 ) ) GLOBAL_UNIT_ASSIGNED_CONTEXT ( ( #152, #149, #151 ) ) REPRESENTATION_CONTEXT ( 'NONE', 'WORKASPACE' ) );
#197 = ADVANCED_FACE ( 'NONE', ( #138 ), #14, .F. ) ;
#198 = ADVANCED_FACE ( 'NONE', ( #129 ), #10, .F. ) ;
#199 = ADVANCED_FACE ( 'NONE', ( #118 ), #6, .F. ) ;
#200 = ADVANCED_FACE ( 'NONE', ( #117 ), #143, .F. ) ;
#201 = EDGE_CURVE ( 'NONE', #59, #61, #161, .T. ) ;
#202 = EDGE_CURVE ( 'NONE', #59, #64, #186, .T. ) ;
#203 = EDGE_CURVE ( 'NONE', #57, #58, #183, .T. ) ;
#204 = EDGE_CURVE ( 'NONE', #60, #58, #180, .T. ) ;
#205 = EDGE_CURVE ( 'NONE', #64, #57, #177, .T. ) ;
#206 = EDGE_CURVE ( 'NONE', #58, #63, #174, .T. ) ;
#207 = EDGE_CURVE ( 'NONE', #57, #62, #171, .T. ) ;
#208 = COLOUR_RGB ( '',0.5686274509803921400, 0.5686274509803921400, 0.5882352941176470800 ) ;
#209 = COLOUR_RGB ( '',0.5686274509803921400, 0.5686274509803921400, 0.5882352941176470800 ) ;
#210 = APPLICATION_CONTEXT ( 'automotive_design' ) ;
#211 = APPLICATION_CONTEXT ( 'automotive_design' ) ;
ENDSEC;
END-ISO-10303-21;
