ISO-10303-21;
HEADER;
FILE_DESCRIPTION (( 'STEP AP214' ),
    '1' );
FILE_NAME ('P063CF50M.step',
    '2012-04-20T21:00:01',
    ( '' ),
    ( '' ),
    'SwSTEP 2.0',
    'SolidWorks 2012',
    '' );
FILE_SCHEMA (( 'AUTOMOTIVE_DESIGN' ));
ENDSEC;

DATA;
#1 = EDGE_LOOP ( 'NONE', ( #76, #75, #74, #77 ) ) ;
#2 = LINE ( 'NONE', #193, #136 ) ;
#3 = DIRECTION ( 'NONE',  ( -0.0000000000000000000, -0.0000000000000000000, 1.000000000000000000 ) ) ;
#4 = CARTESIAN_POINT ( 'NONE',  ( 0.0000000000000000000, 0.0000000000000000000, 0.0000000000000000000 ) ) ;
#5 = EDGE_LOOP ( 'NONE', ( #92, #91, #97, #90 ) ) ;
#6 = LINE ( 'NONE', #4, #133 ) ;
#7 = DIRECTION ( 'NONE',  ( -1.000000000000000000, -0.0000000000000000000, -0.0000000000000000000 ) ) ;
#8 = CARTESIAN_POINT ( 'NONE',  ( 0.0000000000000000000, 0.06250000000000000000, -0.7500000000000001100 ) ) ;
#9 = LINE ( 'NONE', #8, #139 ) ;
#10 = DIRECTION ( 'NONE',  ( -1.000000000000000000, -0.0000000000000000000, -0.0000000000000000000 ) ) ;
#11 = CARTESIAN_POINT ( 'NONE',  ( 0.0000000000000000000, 0.0000000000000000000, -0.7500000000000001100 ) ) ;
#12 = LINE ( 'NONE', #11, #131 ) ;
#13 = DIRECTION ( 'NONE',  ( -0.0000000000000000000, -1.000000000000000000, -0.0000000000000000000 ) ) ;
#14 = CARTESIAN_POINT ( 'NONE',  ( 0.0000000000000000000, 0.06250000000000000000, -0.7500000000000001100 ) ) ;
#15 = LINE ( 'NONE', #14, #143 ) ;
#16 = DIRECTION ( 'NONE',  ( -9.106159978880878600E-017, -0.0000000000000000000, -1.000000000000000000 ) ) ;
#17 = CARTESIAN_POINT ( 'NONE',  ( 0.3749999999999999400, 0.06250000000000000000, -0.7500000000000001100 ) ) ;
#18 = LINE ( 'NONE', #17, #142 ) ;
#19 = DIRECTION ( 'NONE',  ( -1.000000000000000000, 0.0000000000000000000, 4.082155997157843800E-017 ) ) ;
#20 = DIRECTION ( 'NONE',  ( -4.082155997157843800E-017, 0.0000000000000000000, -1.000000000000000000 ) ) ;
#21 = CARTESIAN_POINT ( 'NONE',  ( 0.3750000000000000600, 0.06250000000000000000, -1.530808498934191500E-017 ) ) ;
#22 = PLANE ( 'NONE',  #144 ) ;
#23 = DIRECTION ( 'NONE',  ( 9.106159978880877400E-017, 0.0000000000000000000, 1.000000000000000000 ) ) ;
#24 = DIRECTION ( 'NONE',  ( -1.000000000000000000, 0.0000000000000000000, 9.106159978880877400E-017 ) ) ;
#25 = CARTESIAN_POINT ( 'NONE',  ( 0.3749999999999999400, 0.06250000000000000000, -0.7500000000000001100 ) ) ;
#26 = PLANE ( 'NONE',  #135 ) ;
#27 = DIRECTION ( 'NONE',  ( 1.000000000000000000, 0.0000000000000000000, -0.0000000000000000000 ) ) ;
#28 = DIRECTION ( 'NONE',  ( 0.0000000000000000000, 0.0000000000000000000, 1.000000000000000000 ) ) ;
#29 = CARTESIAN_POINT ( 'NONE',  ( 0.0000000000000000000, 0.06250000000000000000, -0.7500000000000001100 ) ) ;
#30 = PLANE ( 'NONE',  #150 ) ;
#31 = DIRECTION ( 'NONE',  ( 0.0000000000000000000, 0.0000000000000000000, -1.000000000000000000 ) ) ;
#32 = DIRECTION ( 'NONE',  ( 1.000000000000000000, -0.0000000000000000000, 0.0000000000000000000 ) ) ;
#33 = CARTESIAN_POINT ( 'NONE',  ( 0.0000000000000000000, 0.06250000000000000000, 0.0000000000000000000 ) ) ;
#34 = PLANE ( 'NONE',  #146 ) ;
#35 = DIRECTION ( 'NONE',  ( 0.0000000000000000000, 0.0000000000000000000, -1.000000000000000000 ) ) ;
#36 = DIRECTION ( 'NONE',  ( 0.0000000000000000000, -1.000000000000000000, -0.0000000000000000000 ) ) ;
#37 = CARTESIAN_POINT ( 'NONE',  ( 0.0000000000000000000, 0.06250000000000000000, 0.0000000000000000000 ) ) ;
#38 = PLANE ( 'NONE',  #162 ) ;
#39 = DIRECTION ( 'NONE',  ( 0.0000000000000000000, 0.0000000000000000000, -1.000000000000000000 ) ) ;
#40 = DIRECTION ( 'NONE',  ( 0.0000000000000000000, -1.000000000000000000, -0.0000000000000000000 ) ) ;
#41 = CARTESIAN_POINT ( 'NONE',  ( 0.0000000000000000000, 0.0000000000000000000, 0.0000000000000000000 ) ) ;
#42 = DIRECTION ( 'NONE',  ( -0.0000000000000000000, -1.000000000000000000, -0.0000000000000000000 ) ) ;
#43 = CARTESIAN_POINT ( 'NONE',  ( 0.0000000000000000000, 0.06250000000000000000, 0.0000000000000000000 ) ) ;
#44 = LINE ( 'NONE', #43, #165 ) ;
#45 = DIRECTION ( 'NONE',  ( 1.000000000000000000, -0.0000000000000000000, -4.082155997157843800E-017 ) ) ;
#46 = CARTESIAN_POINT ( 'NONE',  ( 0.3750000000000000600, 0.06250000000000000000, -1.530808498934191500E-017 ) ) ;
#47 = LINE ( 'NONE', #46, #166 ) ;
#48 = DIRECTION ( 'NONE',  ( 1.000000000000000000, -0.0000000000000000000, -4.082155997157843800E-017 ) ) ;
#49 = CARTESIAN_POINT ( 'NONE',  ( 0.3750000000000000600, 0.0000000000000000000, -1.530808498934191500E-017 ) ) ;
#50 = LINE ( 'NONE', #49, #163 ) ;
#51 = DIRECTION ( 'NONE',  ( -9.106159978880878600E-017, -0.0000000000000000000, -1.000000000000000000 ) ) ;
#52 = CARTESIAN_POINT ( 'NONE',  ( 0.3749999999999999400, 0.0000000000000000000, -0.7500000000000001100 ) ) ;
#53 = LINE ( 'NONE', #52, #160 ) ;
#54 = PLANE ( 'NONE',  #138 ) ;
#55 = DIRECTION ( 'NONE',  ( -0.0000000000000000000, -1.000000000000000000, -0.0000000000000000000 ) ) ;
#56 = CARTESIAN_POINT ( 'NONE',  ( 0.3750000000000000600, 0.06250000000000000000, -1.530808498934191500E-017 ) ) ;
#57 = LINE ( 'NONE', #56, #159 ) ;
#58 = CARTESIAN_POINT ( 'NONE',  ( 0.3750000000000000600, 0.0000000000000000000, -1.530808498934191500E-017 ) ) ;
#59 = CARTESIAN_POINT ( 'NONE',  ( 0.3749999999999999400, 0.0000000000000000000, -0.7500000000000001100 ) ) ;
#60 = CARTESIAN_POINT ( 'NONE',  ( 0.3750000000000000600, 0.06250000000000000000, -1.530808498934191500E-017 ) ) ;
#61 = CARTESIAN_POINT ( 'NONE',  ( 0.0000000000000000000, 0.06250000000000000000, 0.0000000000000000000 ) ) ;
#62 = CARTESIAN_POINT ( 'NONE',  ( 0.0000000000000000000, 0.0000000000000000000, -0.7500000000000001100 ) ) ;
#63 = CARTESIAN_POINT ( 'NONE',  ( 0.0000000000000000000, 0.06250000000000000000, -0.7500000000000001100 ) ) ;
#64 = CARTESIAN_POINT ( 'NONE',  ( 0.3749999999999999400, 0.06250000000000000000, -0.7500000000000001100 ) ) ;
#65 = CARTESIAN_POINT ( 'NONE',  ( 0.0000000000000000000, 0.0000000000000000000, 0.0000000000000000000 ) ) ;
#66 = VERTEX_POINT ( 'NONE', #65 ) ;
#67 = VERTEX_POINT ( 'NONE', #64 ) ;
#68 = VERTEX_POINT ( 'NONE', #63 ) ;
#69 = VERTEX_POINT ( 'NONE', #62 ) ;
#70 = VERTEX_POINT ( 'NONE', #61 ) ;
#71 = VERTEX_POINT ( 'NONE', #60 ) ;
#72 = VERTEX_POINT ( 'NONE', #59 ) ;
#73 = VERTEX_POINT ( 'NONE', #58 ) ;
#74 = ORIENTED_EDGE ( 'NONE', *, *, #124, .F. ) ;
#75 = ORIENTED_EDGE ( 'NONE', *, *, #126, .F. ) ;
#76 = ORIENTED_EDGE ( 'NONE', *, *, #113, .F. ) ;
#77 = ORIENTED_EDGE ( 'NONE', *, *, #112, .F. ) ;
#78 = ORIENTED_EDGE ( 'NONE', *, *, #125, .T. ) ;
#79 = ORIENTED_EDGE ( 'NONE', *, *, #122, .T. ) ;
#80 = ORIENTED_EDGE ( 'NONE', *, *, #114, .T. ) ;
#81 = ORIENTED_EDGE ( 'NONE', *, *, #123, .T. ) ;
#82 = ORIENTED_EDGE ( 'NONE', *, *, #127, .T. ) ;
#83 = ORIENTED_EDGE ( 'NONE', *, *, #115, .F. ) ;
#84 = ORIENTED_EDGE ( 'NONE', *, *, #126, .T. ) ;
#85 = ORIENTED_EDGE ( 'NONE', *, *, #127, .F. ) ;
#86 = ORIENTED_EDGE ( 'NONE', *, *, #206, .T. ) ;
#87 = ORIENTED_EDGE ( 'NONE', *, *, #123, .F. ) ;
#88 = ORIENTED_EDGE ( 'NONE', *, *, #125, .F. ) ;
#89 = ORIENTED_EDGE ( 'NONE', *, *, #124, .T. ) ;
#90 = ORIENTED_EDGE ( 'NONE', *, *, #110, .T. ) ;
#91 = ORIENTED_EDGE ( 'NONE', *, *, #206, .F. ) ;
#92 = ORIENTED_EDGE ( 'NONE', *, *, #112, .T. ) ;
#93 = ORIENTED_EDGE ( 'NONE', *, *, #115, .T. ) ;
#94 = ORIENTED_EDGE ( 'NONE', *, *, #110, .F. ) ;
#95 = ORIENTED_EDGE ( 'NONE', *, *, #114, .F. ) ;
#96 = ORIENTED_EDGE ( 'NONE', *, *, #113, .T. ) ;
#97 = ORIENTED_EDGE ( 'NONE', *, *, #122, .F. ) ;
#98 = EDGE_LOOP ( 'NONE', ( #89, #87, #88, #86 ) ) ;
#99 = EDGE_LOOP ( 'NONE', ( #84, #83, #85, #81 ) ) ;
#100 = EDGE_LOOP ( 'NONE', ( #80, #79, #78, #82 ) ) ;
#101 = EDGE_LOOP ( 'NONE', ( #96, #94, #95, #93 ) ) ;
#102 = DIMENSIONAL_EXPONENTS ( 1.000000000000000000, 0.0000000000000000000, 0.0000000000000000000, 0.0000000000000000000, 0.0000000000000000000, 0.0000000000000000000, 0.0000000000000000000 ) ;
#103 = DIMENSIONAL_EXPONENTS ( 1.000000000000000000, 0.0000000000000000000, 0.0000000000000000000, 0.0000000000000000000, 0.0000000000000000000, 0.0000000000000000000, 0.0000000000000000000 ) ;
#104 = DIMENSIONAL_EXPONENTS ( 1.000000000000000000, 0.0000000000000000000, 0.0000000000000000000, 0.0000000000000000000, 0.0000000000000000000, 0.0000000000000000000, 0.0000000000000000000 ) ;
#105 = PRODUCT ( 'P063CF50M', 'P063CF50M', '', ( #178 ) ) ;
#106 = UNCERTAINTY_MEASURE_WITH_UNIT (LENGTH_MEASURE( 1.000000000000000100E-005 ), #176, 'distance_accuracy_value', 'NONE');
#107 = UNCERTAINTY_MEASURE_WITH_UNIT (LENGTH_MEASURE( 1.000000000000000100E-005 ), #192, 'distance_accuracy_value', 'NONE');
#108 = UNCERTAINTY_MEASURE_WITH_UNIT (LENGTH_MEASURE( 1.000000000000000100E-005 ), #200, 'distance_accuracy_value', 'NONE');
#109 = ADVANCED_BREP_SHAPE_REPRESENTATION ( 'P063CF50M', ( #208, #157 ), #204 ) ;
#110 = EDGE_CURVE ( 'NONE', #71, #73, #57, .T. ) ;
#111 = COLOUR_RGB ( '',0.5686274509803921400, 0.5686274509803921400, 0.5882352941176470800 ) ;
#112 = EDGE_CURVE ( 'NONE', #73, #72, #53, .T. ) ;
#113 = EDGE_CURVE ( 'NONE', #66, #73, #50, .T. ) ;
#114 = EDGE_CURVE ( 'NONE', #70, #71, #47, .T. ) ;
#115 = EDGE_CURVE ( 'NONE', #70, #66, #44, .T. ) ;
#116 = ADVANCED_FACE ( 'NONE', ( #161 ), #54, .T. ) ;
#117 = ADVANCED_FACE ( 'NONE', ( #141 ), #38, .F. ) ;
#118 = ADVANCED_FACE ( 'NONE', ( #158 ), #34, .F. ) ;
#119 = ADVANCED_FACE ( 'NONE', ( #149 ), #30, .F. ) ;
#120 = ADVANCED_FACE ( 'NONE', ( #151 ), #26, .F. ) ;
#121 = ADVANCED_FACE ( 'NONE', ( #152 ), #22, .F. ) ;
#122 = EDGE_CURVE ( 'NONE', #71, #67, #18, .T. ) ;
#123 = EDGE_CURVE ( 'NONE', #68, #69, #15, .T. ) ;
#124 = EDGE_CURVE ( 'NONE', #72, #69, #12, .T. ) ;
#125 = EDGE_CURVE ( 'NONE', #67, #68, #9, .T. ) ;
#126 = EDGE_CURVE ( 'NONE', #69, #66, #6, .T. ) ;
#127 = EDGE_CURVE ( 'NONE', #68, #70, #2, .T. ) ;
#128 = COLOUR_RGB ( '',0.5686274509803921400, 0.5686274509803921400, 0.5882352941176470800 ) ;
#129 = PRODUCT_DEFINITION ( 'UNKNOWN', '', #132, #207 ) ;
#130 = PRODUCT_RELATED_PRODUCT_CATEGORY ( 'part', '', ( #105 ) ) ;
#131 = VECTOR ( 'NONE', #10, 39.37007874015748100 ) ;
#132 = PRODUCT_DEFINITION_FORMATION_WITH_SPECIFIED_SOURCE ( 'ANY', '', #105, .NOT_KNOWN. ) ;
#133 = VECTOR ( 'NONE', #3, 39.37007874015748100 ) ;
#134 = LENGTH_MEASURE_WITH_UNIT ( LENGTH_MEASURE( 0.02539999999999999900 ), #194 );
#135 = AXIS2_PLACEMENT_3D ( 'NONE', #25, #24, #23 ) ;
#136 = VECTOR ( 'NONE', #171, 39.37007874015748100 ) ;
#137 = LENGTH_MEASURE_WITH_UNIT ( LENGTH_MEASURE( 0.02539999999999999900 ), #201 );
#138 = AXIS2_PLACEMENT_3D ( 'NONE', #41, #40, #39 ) ;
#139 = VECTOR ( 'NONE', #7, 39.37007874015748100 ) ;
#140 = STYLED_ITEM ( 'NONE', ( #179 ), #109 ) ;
#141 = FACE_OUTER_BOUND ( 'NONE', #100, .T. ) ;
#142 = VECTOR ( 'NONE', #16, 39.37007874015748100 ) ;
#143 = VECTOR ( 'NONE', #13, 39.37007874015748100 ) ;
#144 = AXIS2_PLACEMENT_3D ( 'NONE', #21, #20, #19 ) ;
#145 = STYLED_ITEM ( 'NONE', ( #202 ), #208 ) ;
#146 = AXIS2_PLACEMENT_3D ( 'NONE', #33, #32, #31 ) ;
#147 = PRESENTATION_LAYER_ASSIGNMENT (  '', '', ( #145 ) ) ;
#148 = VECTOR ( 'NONE', #190, 39.37007874015748100 ) ;
#149 = FACE_OUTER_BOUND ( 'NONE', #98, .T. ) ;
#150 = AXIS2_PLACEMENT_3D ( 'NONE', #29, #28, #27 ) ;
#151 = FACE_OUTER_BOUND ( 'NONE', #5, .T. ) ;
#152 = FACE_OUTER_BOUND ( 'NONE', #101, .T. ) ;
#153 = MECHANICAL_DESIGN_GEOMETRIC_PRESENTATION_REPRESENTATION (  '', ( #145 ), #203 ) ;
#154 = PRESENTATION_LAYER_ASSIGNMENT (  '', '', ( #140 ) ) ;
#155 = MECHANICAL_DESIGN_GEOMETRIC_PRESENTATION_REPRESENTATION (  '', ( #140 ), #205 ) ;
#156 = LENGTH_MEASURE_WITH_UNIT ( LENGTH_MEASURE( 0.02539999999999999900 ), #177 );
#157 = AXIS2_PLACEMENT_3D ( 'NONE', #173, #172, #168 ) ;
#158 = FACE_OUTER_BOUND ( 'NONE', #99, .T. ) ;
#159 = VECTOR ( 'NONE', #55, 39.37007874015748100 ) ;
#160 = VECTOR ( 'NONE', #51, 39.37007874015748100 ) ;
#161 = FACE_OUTER_BOUND ( 'NONE', #1, .T. ) ;
#162 = AXIS2_PLACEMENT_3D ( 'NONE', #37, #36, #35 ) ;
#163 = VECTOR ( 'NONE', #48, 39.37007874015748100 ) ;
#164 = CLOSED_SHELL ( 'NONE', ( #121, #120, #119, #118, #117, #116 ) ) ;
#165 = VECTOR ( 'NONE', #42, 39.37007874015748100 ) ;
#166 = VECTOR ( 'NONE', #45, 39.37007874015748100 ) ;
#167 = SHAPE_DEFINITION_REPRESENTATION ( #209, #109 ) ;
#168 = DIRECTION ( 'NONE',  ( 1.000000000000000000, 0.0000000000000000000, 0.0000000000000000000 ) ) ;
#169 = CARTESIAN_POINT ( 'NONE',  ( 0.3749999999999999400, 0.06250000000000000000, -0.7500000000000001100 ) ) ;
#170 = LINE ( 'NONE', #169, #148 ) ;
#171 = DIRECTION ( 'NONE',  ( -0.0000000000000000000, -0.0000000000000000000, 1.000000000000000000 ) ) ;
#172 = DIRECTION ( 'NONE',  ( 0.0000000000000000000, 0.0000000000000000000, 1.000000000000000000 ) ) ;
#173 = CARTESIAN_POINT ( 'NONE',  ( 0.0000000000000000000, 0.0000000000000000000, 0.0000000000000000000 ) ) ;
#174 =( NAMED_UNIT ( * ) SI_UNIT ( $, .STERADIAN. ) SOLID_ANGLE_UNIT ( ) );
#175 =( NAMED_UNIT ( * ) PLANE_ANGLE_UNIT ( ) SI_UNIT ( $, .RADIAN. ) );
#176 =( CONVERSION_BASED_UNIT ( 'INCH', #156 ) LENGTH_UNIT ( ) NAMED_UNIT ( #103 ) );
#177 =( LENGTH_UNIT ( ) NAMED_UNIT ( * ) SI_UNIT ( $, .METRE. ) );
#178 = PRODUCT_CONTEXT ( 'NONE', #210, 'mechanical' ) ;
#179 = PRESENTATION_STYLE_ASSIGNMENT (( #180 ) ) ;
#180 = SURFACE_STYLE_USAGE ( .BOTH. , #181 ) ;
#181 = SURFACE_SIDE_STYLE ('',( #182 ) ) ;
#182 = SURFACE_STYLE_FILL_AREA ( #184 ) ;
#183 = APPLICATION_PROTOCOL_DEFINITION ( 'draft international standard', 'automotive_design', 1998, #211 ) ;
#184 = FILL_AREA_STYLE ('',( #185 ) ) ;
#185 = FILL_AREA_STYLE_COLOUR ( '', #128 ) ;
#186 = FILL_AREA_STYLE ('',( #187 ) ) ;
#187 = FILL_AREA_STYLE_COLOUR ( '', #111 ) ;
#188 = APPLICATION_PROTOCOL_DEFINITION ( 'draft international standard', 'automotive_design', 1998, #210 ) ;
#189 =( NAMED_UNIT ( * ) SI_UNIT ( $, .STERADIAN. ) SOLID_ANGLE_UNIT ( ) );
#190 = DIRECTION ( 'NONE',  ( -0.0000000000000000000, -1.000000000000000000, -0.0000000000000000000 ) ) ;
#191 =( NAMED_UNIT ( * ) PLANE_ANGLE_UNIT ( ) SI_UNIT ( $, .RADIAN. ) );
#192 =( CONVERSION_BASED_UNIT ( 'INCH', #134 ) LENGTH_UNIT ( ) NAMED_UNIT ( #104 ) );
#193 = CARTESIAN_POINT ( 'NONE',  ( 0.0000000000000000000, 0.06250000000000000000, 0.0000000000000000000 ) ) ;
#194 =( LENGTH_UNIT ( ) NAMED_UNIT ( * ) SI_UNIT ( $, .METRE. ) );
#195 = SURFACE_STYLE_USAGE ( .BOTH. , #196 ) ;
#196 = SURFACE_SIDE_STYLE ('',( #197 ) ) ;
#197 = SURFACE_STYLE_FILL_AREA ( #186 ) ;
#198 =( NAMED_UNIT ( * ) SI_UNIT ( $, .STERADIAN. ) SOLID_ANGLE_UNIT ( ) );
#199 =( NAMED_UNIT ( * ) PLANE_ANGLE_UNIT ( ) SI_UNIT ( $, .RADIAN. ) );
#200 =( CONVERSION_BASED_UNIT ( 'INCH', #137 ) LENGTH_UNIT ( ) NAMED_UNIT ( #102 ) );
#201 =( LENGTH_UNIT ( ) NAMED_UNIT ( * ) SI_UNIT ( $, .METRE. ) );
#202 = PRESENTATION_STYLE_ASSIGNMENT (( #195 ) ) ;
#203 =( GEOMETRIC_REPRESENTATION_CONTEXT ( 3 ) GLOBAL_UNCERTAINTY_ASSIGNED_CONTEXT ( ( #108 ) ) GLOBAL_UNIT_ASSIGNED_CONTEXT ( ( #200, #199, #198 ) ) REPRESENTATION_CONTEXT ( 'NONE', 'WORKASPACE' ) );
#204 =( GEOMETRIC_REPRESENTATION_CONTEXT ( 3 ) GLOBAL_UNCERTAINTY_ASSIGNED_CONTEXT ( ( #107 ) ) GLOBAL_UNIT_ASSIGNED_CONTEXT ( ( #192, #191, #189 ) ) REPRESENTATION_CONTEXT ( 'NONE', 'WORKASPACE' ) );
#205 =( GEOMETRIC_REPRESENTATION_CONTEXT ( 3 ) GLOBAL_UNCERTAINTY_ASSIGNED_CONTEXT ( ( #106 ) ) GLOBAL_UNIT_ASSIGNED_CONTEXT ( ( #176, #175, #174 ) ) REPRESENTATION_CONTEXT ( 'NONE', 'WORKASPACE' ) );
#206 = EDGE_CURVE ( 'NONE', #67, #72, #170, .T. ) ;
#207 = PRODUCT_DEFINITION_CONTEXT ( 'detailed design', #211, 'design' ) ;
#208 = MANIFOLD_SOLID_BREP ( 'Boss-Extrude1', #164 ) ;
#209 = PRODUCT_DEFINITION_SHAPE ( 'NONE', 'NONE',  #129 ) ;
#210 = APPLICATION_CONTEXT ( 'automotive_design' ) ;
#211 = APPLICATION_CONTEXT ( 'automotive_design' ) ;
ENDSEC;
END-ISO-10303-21;
