ISO-10303-21;
HEADER;
FILE_DESCRIPTION (( 'STEP AP214' ),
    '1' );
FILE_NAME ('P100-1000-375.step',
    '2012-04-20T21:00:18',
    ( '' ),
    ( '' ),
    'SwSTEP 2.0',
    'SolidWorks 2012',
    '' );
FILE_SCHEMA (( 'AUTOMOTIVE_DESIGN' ));
ENDSEC;

DATA;
#1 = PRODUCT ( 'P100-1000-375', 'P100-1000-375', '', ( #20 ) ) ;
#2 = DIMENSIONAL_EXPONENTS ( 1.000000000000000000, 0.0000000000000000000, 0.0000000000000000000, 0.0000000000000000000, 0.0000000000000000000, 0.0000000000000000000, 0.0000000000000000000 ) ;
#3 = DIMENSIONAL_EXPONENTS ( 1.000000000000000000, 0.0000000000000000000, 0.0000000000000000000, 0.0000000000000000000, 0.0000000000000000000, 0.0000000000000000000, 0.0000000000000000000 ) ;
#4 = DIMENSIONAL_EXPONENTS ( 1.000000000000000000, 0.0000000000000000000, 0.0000000000000000000, 0.0000000000000000000, 0.0000000000000000000, 0.0000000000000000000, 0.0000000000000000000 ) ;
#5 = AXIS2_PLACEMENT_3D ( 'NONE', #99, #94, #96 ) ;
#6 = VECTOR ( 'NONE', #97, 39.37007874015748100 ) ;
#7 = FACE_OUTER_BOUND ( 'NONE', #139, .T. ) ;
#8 = VECTOR ( 'NONE', #106, 39.37007874015748100 ) ;
#9 = FACE_OUTER_BOUND ( 'NONE', #136, .T. ) ;
#10 = FACE_OUTER_BOUND ( 'NONE', #137, .T. ) ;
#11 = CLOSED_SHELL ( 'NONE', ( #160, #166, #176, #177, #167, #162 ) ) ;
#12 = AXIS2_PLACEMENT_3D ( 'NONE', #104, #103, #102 ) ;
#13 = PRODUCT_RELATED_PRODUCT_CATEGORY ( 'part', '', ( #1 ) ) ;
#14 = COLOUR_RGB ( '',0.5686274509803921400, 0.5686274509803921400, 0.5882352941176470800 ) ;
#15 = COLOUR_RGB ( '',0.5686274509803921400, 0.5686274509803921400, 0.5882352941176470800 ) ;
#16 =( GEOMETRIC_REPRESENTATION_CONTEXT ( 3 ) GLOBAL_UNCERTAINTY_ASSIGNED_CONTEXT ( ( #156 ) ) GLOBAL_UNIT_ASSIGNED_CONTEXT ( ( #18, #87, #26 ) ) REPRESENTATION_CONTEXT ( 'NONE', 'WORKASPACE' ) );
#17 =( GEOMETRIC_REPRESENTATION_CONTEXT ( 3 ) GLOBAL_UNCERTAINTY_ASSIGNED_CONTEXT ( ( #157 ) ) GLOBAL_UNIT_ASSIGNED_CONTEXT ( ( #35, #34, #33 ) ) REPRESENTATION_CONTEXT ( 'NONE', 'WORKASPACE' ) );
#18 =( CONVERSION_BASED_UNIT ( 'INCH', #185 ) LENGTH_UNIT ( ) NAMED_UNIT ( #2 ) );
#19 = APPLICATION_PROTOCOL_DEFINITION ( 'draft international standard', 'automotive_design', 1998, #179 ) ;
#20 = PRODUCT_CONTEXT ( 'NONE', #178, 'mechanical' ) ;
#21 = APPLICATION_PROTOCOL_DEFINITION ( 'draft international standard', 'automotive_design', 1998, #178 ) ;
#22 = DIRECTION ( 'NONE',  ( 1.000000000000000000, 0.0000000000000000000, 0.0000000000000000000 ) ) ;
#23 = DIRECTION ( 'NONE',  ( 0.0000000000000000000, 0.0000000000000000000, 1.000000000000000000 ) ) ;
#24 =( LENGTH_UNIT ( ) NAMED_UNIT ( * ) SI_UNIT ( $, .METRE. ) );
#25 = PRESENTATION_STYLE_ASSIGNMENT (( #29 ) ) ;
#26 =( NAMED_UNIT ( * ) SI_UNIT ( $, .STERADIAN. ) SOLID_ANGLE_UNIT ( ) );
#27 = SURFACE_STYLE_FILL_AREA ( #31 ) ;
#28 = SURFACE_SIDE_STYLE ('',( #27 ) ) ;
#29 = SURFACE_STYLE_USAGE ( .BOTH. , #28 ) ;
#30 = FILL_AREA_STYLE_COLOUR ( '', #14 ) ;
#31 = FILL_AREA_STYLE ('',( #30 ) ) ;
#32 = SHAPE_DEFINITION_REPRESENTATION ( #181, #158 ) ;
#33 =( NAMED_UNIT ( * ) SI_UNIT ( $, .STERADIAN. ) SOLID_ANGLE_UNIT ( ) );
#34 =( NAMED_UNIT ( * ) PLANE_ANGLE_UNIT ( ) SI_UNIT ( $, .RADIAN. ) );
#35 =( CONVERSION_BASED_UNIT ( 'INCH', #189 ) LENGTH_UNIT ( ) NAMED_UNIT ( #4 ) );
#36 = CARTESIAN_POINT ( 'NONE',  ( 0.0000000000000000000, 0.0000000000000000000, 0.0000000000000000000 ) ) ;
#37 =( LENGTH_UNIT ( ) NAMED_UNIT ( * ) SI_UNIT ( $, .METRE. ) );
#38 =( NAMED_UNIT ( * ) SI_UNIT ( $, .STERADIAN. ) SOLID_ANGLE_UNIT ( ) );
#39 =( NAMED_UNIT ( * ) PLANE_ANGLE_UNIT ( ) SI_UNIT ( $, .RADIAN. ) );
#40 =( CONVERSION_BASED_UNIT ( 'INCH', #190 ) LENGTH_UNIT ( ) NAMED_UNIT ( #3 ) );
#41 =( LENGTH_UNIT ( ) NAMED_UNIT ( * ) SI_UNIT ( $, .METRE. ) );
#42 = PRESENTATION_STYLE_ASSIGNMENT (( #43 ) ) ;
#43 = SURFACE_STYLE_USAGE ( .BOTH. , #44 ) ;
#44 = SURFACE_SIDE_STYLE ('',( #45 ) ) ;
#45 = SURFACE_STYLE_FILL_AREA ( #46 ) ;
#46 = FILL_AREA_STYLE ('',( #47 ) ) ;
#47 = FILL_AREA_STYLE_COLOUR ( '', #15 ) ;
#48 = DIRECTION ( 'NONE',  ( 0.0000000000000000000, 0.0000000000000000000, -1.000000000000000000 ) ) ;
#49 = DIRECTION ( 'NONE',  ( 1.000000000000000000, -0.0000000000000000000, 0.0000000000000000000 ) ) ;
#50 = CARTESIAN_POINT ( 'NONE',  ( 0.0000000000000000000, 0.1000000000000000100, 0.0000000000000000000 ) ) ;
#51 = PLANE ( 'NONE',  #193 ) ;
#52 = DIRECTION ( 'NONE',  ( 1.000000000000000000, 0.0000000000000000000, -0.0000000000000000000 ) ) ;
#53 = DIRECTION ( 'NONE',  ( 0.0000000000000000000, 0.0000000000000000000, 1.000000000000000000 ) ) ;
#54 = CARTESIAN_POINT ( 'NONE',  ( 0.0000000000000000000, 0.1000000000000000100, -0.3750000000000001100 ) ) ;
#55 = DIRECTION ( 'NONE',  ( -0.0000000000000000000, -1.000000000000000000, -0.0000000000000000000 ) ) ;
#56 = CARTESIAN_POINT ( 'NONE',  ( 0.0000000000000000000, 0.1000000000000000100, 0.0000000000000000000 ) ) ;
#57 = LINE ( 'NONE', #56, #196 ) ;
#58 = DIRECTION ( 'NONE',  ( -0.0000000000000000000, -0.0000000000000000000, 1.000000000000000000 ) ) ;
#59 = CARTESIAN_POINT ( 'NONE',  ( 0.0000000000000000000, 0.0000000000000000000, 0.0000000000000000000 ) ) ;
#60 = LINE ( 'NONE', #59, #198 ) ;
#61 = DIRECTION ( 'NONE',  ( -0.0000000000000000000, -0.0000000000000000000, 1.000000000000000000 ) ) ;
#62 = CARTESIAN_POINT ( 'NONE',  ( 0.0000000000000000000, 0.1000000000000000100, 0.0000000000000000000 ) ) ;
#63 = LINE ( 'NONE', #62, #199 ) ;
#64 = DIRECTION ( 'NONE',  ( -1.000000000000000000, -0.0000000000000000000, -0.0000000000000000000 ) ) ;
#65 = CARTESIAN_POINT ( 'NONE',  ( 0.0000000000000000000, 0.1000000000000000100, -0.3750000000000001100 ) ) ;
#66 = LINE ( 'NONE', #65, #200 ) ;
#67 = DIRECTION ( 'NONE',  ( -0.0000000000000000000, -1.000000000000000000, -0.0000000000000000000 ) ) ;
#68 = CARTESIAN_POINT ( 'NONE',  ( 1.000000000000000000, 0.1000000000000000100, -9.184850993605148400E-017 ) ) ;
#69 = LINE ( 'NONE', #68, #201 ) ;
#70 = DIRECTION ( 'NONE',  ( 1.000000000000000000, -0.0000000000000000000, -9.184850993605148400E-017 ) ) ;
#71 = CARTESIAN_POINT ( 'NONE',  ( 1.000000000000000000, 0.0000000000000000000, -9.184850993605148400E-017 ) ) ;
#72 = LINE ( 'NONE', #71, #202 ) ;
#73 = PLANE ( 'NONE',  #195 ) ;
#74 = DIRECTION ( 'NONE',  ( -0.0000000000000000000, -0.0000000000000000000, -1.000000000000000000 ) ) ;
#75 = CARTESIAN_POINT ( 'NONE',  ( 1.000000000000000000, 0.0000000000000000000, -0.3750000000000001100 ) ) ;
#76 = LINE ( 'NONE', #75, #203 ) ;
#77 = DIRECTION ( 'NONE',  ( 0.0000000000000000000, 0.0000000000000000000, -1.000000000000000000 ) ) ;
#78 = DIRECTION ( 'NONE',  ( 0.0000000000000000000, -1.000000000000000000, -0.0000000000000000000 ) ) ;
#79 = CARTESIAN_POINT ( 'NONE',  ( 0.0000000000000000000, 0.1000000000000000100, 0.0000000000000000000 ) ) ;
#80 = PLANE ( 'NONE',  #204 ) ;
#81 = DIRECTION ( 'NONE',  ( 0.0000000000000000000, 0.0000000000000000000, 1.000000000000000000 ) ) ;
#82 = DIRECTION ( 'NONE',  ( -1.000000000000000000, 0.0000000000000000000, 0.0000000000000000000 ) ) ;
#83 = CARTESIAN_POINT ( 'NONE',  ( 1.000000000000000000, 0.1000000000000000100, -0.3750000000000001100 ) ) ;
#84 = DIRECTION ( 'NONE',  ( 1.000000000000000000, -0.0000000000000000000, -9.184850993605148400E-017 ) ) ;
#85 = CARTESIAN_POINT ( 'NONE',  ( 1.000000000000000000, 0.1000000000000000100, -9.184850993605148400E-017 ) ) ;
#86 = LINE ( 'NONE', #85, #208 ) ;
#87 =( NAMED_UNIT ( * ) PLANE_ANGLE_UNIT ( ) SI_UNIT ( $, .RADIAN. ) );
#88 = LINE ( 'NONE', #89, #209 ) ;
#89 = CARTESIAN_POINT ( 'NONE',  ( 0.0000000000000000000, 0.1000000000000000100, -0.3750000000000001100 ) ) ;
#90 = DIRECTION ( 'NONE',  ( -0.0000000000000000000, -1.000000000000000000, -0.0000000000000000000 ) ) ;
#91 = CARTESIAN_POINT ( 'NONE',  ( 1.000000000000000000, 0.1000000000000000100, -0.3750000000000001100 ) ) ;
#92 = DIRECTION ( 'NONE',  ( -0.0000000000000000000, -0.0000000000000000000, -1.000000000000000000 ) ) ;
#93 = PLANE ( 'NONE',  #207 ) ;
#94 = DIRECTION ( 'NONE',  ( 0.0000000000000000000, -1.000000000000000000, -0.0000000000000000000 ) ) ;
#95 = LINE ( 'NONE', #91, #210 ) ;
#96 = DIRECTION ( 'NONE',  ( 0.0000000000000000000, 0.0000000000000000000, -1.000000000000000000 ) ) ;
#97 = DIRECTION ( 'NONE',  ( -1.000000000000000000, -0.0000000000000000000, -0.0000000000000000000 ) ) ;
#98 = PLANE ( 'NONE',  #5 ) ;
#99 = CARTESIAN_POINT ( 'NONE',  ( 0.0000000000000000000, 0.0000000000000000000, 0.0000000000000000000 ) ) ;
#100 = CARTESIAN_POINT ( 'NONE',  ( 0.0000000000000000000, 0.0000000000000000000, -0.3750000000000001100 ) ) ;
#101 = LINE ( 'NONE', #100, #6 ) ;
#102 = DIRECTION ( 'NONE',  ( -1.000000000000000000, 0.0000000000000000000, 9.184850993605148400E-017 ) ) ;
#103 = DIRECTION ( 'NONE',  ( -9.184850993605148400E-017, 0.0000000000000000000, -1.000000000000000000 ) ) ;
#104 = CARTESIAN_POINT ( 'NONE',  ( 1.000000000000000000, 0.1000000000000000100, -9.184850993605148400E-017 ) ) ;
#105 = PLANE ( 'NONE',  #12 ) ;
#106 = DIRECTION ( 'NONE',  ( -0.0000000000000000000, -1.000000000000000000, -0.0000000000000000000 ) ) ;
#107 = CARTESIAN_POINT ( 'NONE',  ( 1.000000000000000000, 0.1000000000000000100, -0.3750000000000001100 ) ) ;
#108 = LINE ( 'NONE', #107, #8 ) ;
#109 = CARTESIAN_POINT ( 'NONE',  ( 0.0000000000000000000, 0.0000000000000000000, -0.3750000000000001100 ) ) ;
#110 = CARTESIAN_POINT ( 'NONE',  ( 0.0000000000000000000, 0.1000000000000000100, -0.3750000000000001100 ) ) ;
#111 = CARTESIAN_POINT ( 'NONE',  ( 1.000000000000000000, 0.1000000000000000100, -0.3750000000000001100 ) ) ;
#112 = CARTESIAN_POINT ( 'NONE',  ( 1.000000000000000000, 0.0000000000000000000, -0.3750000000000001100 ) ) ;
#113 = CARTESIAN_POINT ( 'NONE',  ( 0.0000000000000000000, 0.1000000000000000100, 0.0000000000000000000 ) ) ;
#114 = CARTESIAN_POINT ( 'NONE',  ( 1.000000000000000000, 0.1000000000000000100, -9.184850993605148400E-017 ) ) ;
#115 = CARTESIAN_POINT ( 'NONE',  ( 1.000000000000000000, 0.0000000000000000000, -9.184850993605148400E-017 ) ) ;
#116 = CARTESIAN_POINT ( 'NONE',  ( 0.0000000000000000000, 0.0000000000000000000, 0.0000000000000000000 ) ) ;
#117 = ORIENTED_EDGE ( 'NONE', *, *, #171, .T. ) ;
#118 = ORIENTED_EDGE ( 'NONE', *, *, #168, .F. ) ;
#119 = ORIENTED_EDGE ( 'NONE', *, *, #174, .F. ) ;
#120 = ORIENTED_EDGE ( 'NONE', *, *, #169, .F. ) ;
#121 = ORIENTED_EDGE ( 'NONE', *, *, #161, .F. ) ;
#122 = ORIENTED_EDGE ( 'NONE', *, *, #164, .T. ) ;
#123 = ORIENTED_EDGE ( 'NONE', *, *, #165, .T. ) ;
#124 = ORIENTED_EDGE ( 'NONE', *, *, #163, .T. ) ;
#125 = ORIENTED_EDGE ( 'NONE', *, *, #172, .T. ) ;
#126 = VERTEX_POINT ( 'NONE', #116 ) ;
#127 = VERTEX_POINT ( 'NONE', #115 ) ;
#128 = VERTEX_POINT ( 'NONE', #114 ) ;
#129 = VERTEX_POINT ( 'NONE', #113 ) ;
#130 = VERTEX_POINT ( 'NONE', #112 ) ;
#131 = VERTEX_POINT ( 'NONE', #111 ) ;
#132 = VERTEX_POINT ( 'NONE', #110 ) ;
#133 = VERTEX_POINT ( 'NONE', #109 ) ;
#134 = EDGE_LOOP ( 'NONE', ( #147, #150, #148, #122 ) ) ;
#135 = EDGE_LOOP ( 'NONE', ( #123, #124, #117, #125 ) ) ;
#136 = EDGE_LOOP ( 'NONE', ( #120, #119, #121, #118 ) ) ;
#137 = EDGE_LOOP ( 'NONE', ( #152, #140, #143, #146 ) ) ;
#138 = EDGE_LOOP ( 'NONE', ( #144, #153, #149, #154 ) ) ;
#139 = EDGE_LOOP ( 'NONE', ( #145, #141, #142, #151 ) ) ;
#140 = ORIENTED_EDGE ( 'NONE', *, *, #170, .F. ) ;
#141 = ORIENTED_EDGE ( 'NONE', *, *, #159, .F. ) ;
#142 = ORIENTED_EDGE ( 'NONE', *, *, #163, .F. ) ;
#143 = ORIENTED_EDGE ( 'NONE', *, *, #165, .F. ) ;
#144 = ORIENTED_EDGE ( 'NONE', *, *, #161, .T. ) ;
#145 = ORIENTED_EDGE ( 'NONE', *, *, #168, .T. ) ;
#146 = ORIENTED_EDGE ( 'NONE', *, *, #175, .T. ) ;
#147 = ORIENTED_EDGE ( 'NONE', *, *, #174, .T. ) ;
#148 = ORIENTED_EDGE ( 'NONE', *, *, #172, .F. ) ;
#149 = ORIENTED_EDGE ( 'NONE', *, *, #171, .F. ) ;
#150 = ORIENTED_EDGE ( 'NONE', *, *, #175, .F. ) ;
#151 = ORIENTED_EDGE ( 'NONE', *, *, #170, .T. ) ;
#152 = ORIENTED_EDGE ( 'NONE', *, *, #169, .T. ) ;
#153 = ORIENTED_EDGE ( 'NONE', *, *, #164, .F. ) ;
#154 = ORIENTED_EDGE ( 'NONE', *, *, #159, .T. ) ;
#155 = UNCERTAINTY_MEASURE_WITH_UNIT (LENGTH_MEASURE( 1.000000000000000100E-005 ), #40, 'distance_accuracy_value', 'NONE');
#156 = UNCERTAINTY_MEASURE_WITH_UNIT (LENGTH_MEASURE( 1.000000000000000100E-005 ), #18, 'distance_accuracy_value', 'NONE');
#157 = UNCERTAINTY_MEASURE_WITH_UNIT (LENGTH_MEASURE( 1.000000000000000100E-005 ), #35, 'distance_accuracy_value', 'NONE');
#158 = ADVANCED_BREP_SHAPE_REPRESENTATION ( 'P100-1000-375', ( #180, #184 ), #17 ) ;
#159 = EDGE_CURVE ( 'NONE', #131, #130, #108, .T. ) ;
#160 = ADVANCED_FACE ( 'NONE', ( #10 ), #105, .F. ) ;
#161 = EDGE_CURVE ( 'NONE', #130, #133, #101, .T. ) ;
#162 = ADVANCED_FACE ( 'NONE', ( #9 ), #98, .T. ) ;
#163 = EDGE_CURVE ( 'NONE', #128, #131, #95, .T. ) ;
#164 = EDGE_CURVE ( 'NONE', #132, #133, #88, .T. ) ;
#165 = EDGE_CURVE ( 'NONE', #129, #128, #86, .T. ) ;
#166 = ADVANCED_FACE ( 'NONE', ( #7 ), #93, .F. ) ;
#167 = ADVANCED_FACE ( 'NONE', ( #206 ), #80, .F. ) ;
#168 = EDGE_CURVE ( 'NONE', #127, #130, #76, .T. ) ;
#169 = EDGE_CURVE ( 'NONE', #126, #127, #72, .T. ) ;
#170 = EDGE_CURVE ( 'NONE', #128, #127, #69, .T. ) ;
#171 = EDGE_CURVE ( 'NONE', #131, #132, #66, .T. ) ;
#172 = EDGE_CURVE ( 'NONE', #132, #129, #63, .T. ) ;
#173 = PRODUCT_DEFINITION ( 'UNKNOWN', '', #183, #182 ) ;
#174 = EDGE_CURVE ( 'NONE', #133, #126, #60, .T. ) ;
#175 = EDGE_CURVE ( 'NONE', #129, #126, #57, .T. ) ;
#176 = ADVANCED_FACE ( 'NONE', ( #205 ), #73, .F. ) ;
#177 = ADVANCED_FACE ( 'NONE', ( #197 ), #51, .F. ) ;
#178 = APPLICATION_CONTEXT ( 'automotive_design' ) ;
#179 = APPLICATION_CONTEXT ( 'automotive_design' ) ;
#180 = MANIFOLD_SOLID_BREP ( 'Boss-Extrude1', #11 ) ;
#181 = PRODUCT_DEFINITION_SHAPE ( 'NONE', 'NONE',  #173 ) ;
#182 = PRODUCT_DEFINITION_CONTEXT ( 'detailed design', #179, 'design' ) ;
#183 = PRODUCT_DEFINITION_FORMATION_WITH_SPECIFIED_SOURCE ( 'ANY', '', #1, .NOT_KNOWN. ) ;
#184 = AXIS2_PLACEMENT_3D ( 'NONE', #36, #23, #22 ) ;
#185 = LENGTH_MEASURE_WITH_UNIT ( LENGTH_MEASURE( 0.02539999999999999900 ), #24 );
#186 = MECHANICAL_DESIGN_GEOMETRIC_PRESENTATION_REPRESENTATION (  '', ( #188 ), #16 ) ;
#187 = PRESENTATION_LAYER_ASSIGNMENT (  '', '', ( #188 ) ) ;
#188 = STYLED_ITEM ( 'NONE', ( #25 ), #158 ) ;
#189 = LENGTH_MEASURE_WITH_UNIT ( LENGTH_MEASURE( 0.02539999999999999900 ), #37 );
#190 = LENGTH_MEASURE_WITH_UNIT ( LENGTH_MEASURE( 0.02539999999999999900 ), #41 );
#191 = MECHANICAL_DESIGN_GEOMETRIC_PRESENTATION_REPRESENTATION (  '', ( #194 ), #211 ) ;
#192 = PRESENTATION_LAYER_ASSIGNMENT (  '', '', ( #194 ) ) ;
#193 = AXIS2_PLACEMENT_3D ( 'NONE', #50, #49, #48 ) ;
#194 = STYLED_ITEM ( 'NONE', ( #42 ), #180 ) ;
#195 = AXIS2_PLACEMENT_3D ( 'NONE', #54, #53, #52 ) ;
#196 = VECTOR ( 'NONE', #55, 39.37007874015748100 ) ;
#197 = FACE_OUTER_BOUND ( 'NONE', #134, .T. ) ;
#198 = VECTOR ( 'NONE', #58, 39.37007874015748100 ) ;
#199 = VECTOR ( 'NONE', #61, 39.37007874015748100 ) ;
#200 = VECTOR ( 'NONE', #64, 39.37007874015748100 ) ;
#201 = VECTOR ( 'NONE', #67, 39.37007874015748100 ) ;
#202 = VECTOR ( 'NONE', #70, 39.37007874015748100 ) ;
#203 = VECTOR ( 'NONE', #74, 39.37007874015748100 ) ;
#204 = AXIS2_PLACEMENT_3D ( 'NONE', #79, #78, #77 ) ;
#205 = FACE_OUTER_BOUND ( 'NONE', #138, .T. ) ;
#206 = FACE_OUTER_BOUND ( 'NONE', #135, .T. ) ;
#207 = AXIS2_PLACEMENT_3D ( 'NONE', #83, #82, #81 ) ;
#208 = VECTOR ( 'NONE', #84, 39.37007874015748100 ) ;
#209 = VECTOR ( 'NONE', #90, 39.37007874015748100 ) ;
#210 = VECTOR ( 'NONE', #92, 39.37007874015748100 ) ;
#211 =( GEOMETRIC_REPRESENTATION_CONTEXT ( 3 ) GLOBAL_UNCERTAINTY_ASSIGNED_CONTEXT ( ( #155 ) ) GLOBAL_UNIT_ASSIGNED_CONTEXT ( ( #40, #39, #38 ) ) REPRESENTATION_CONTEXT ( 'NONE', 'WORKASPACE' ) );
ENDSEC;
END-ISO-10303-21;
