ISO-10303-21;
HEADER;
FILE_DESCRIPTION (( 'STEP AP214' ),
    '1' );
FILE_NAME ('P125-3516W.step',
    '2012-04-20T21:00:28',
    ( '' ),
    ( '' ),
    'SwSTEP 2.0',
    'SolidWorks 2012',
    '' );
FILE_SCHEMA (( 'AUTOMOTIVE_DESIGN' ));
ENDSEC;

DATA;
#1 = DIMENSIONAL_EXPONENTS ( 1.000000000000000000, 0.0000000000000000000, 0.0000000000000000000, 0.0000000000000000000, 0.0000000000000000000, 0.0000000000000000000, 0.0000000000000000000 ) ;
#2 = DIMENSIONAL_EXPONENTS ( 1.000000000000000000, 0.0000000000000000000, 0.0000000000000000000, 0.0000000000000000000, 0.0000000000000000000, 0.0000000000000000000, 0.0000000000000000000 ) ;
#3 = DIMENSIONAL_EXPONENTS ( 1.000000000000000000, 0.0000000000000000000, 0.0000000000000000000, 0.0000000000000000000, 0.0000000000000000000, 0.0000000000000000000, 0.0000000000000000000 ) ;
#4 = PRODUCT ( 'P125-3516W', 'P125-3516W', '', ( #27 ) ) ;
#5 = VECTOR ( 'NONE', #97, 39.37007874015748100 ) ;
#6 = CLOSED_SHELL ( 'NONE', ( #173, #167, #165, #169, #164, #166 ) ) ;
#7 = VECTOR ( 'NONE', #100, 39.37007874015748100 ) ;
#8 = VECTOR ( 'NONE', #102, 39.37007874015748100 ) ;
#9 = VECTOR ( 'NONE', #105, 39.37007874015748100 ) ;
#10 = FACE_OUTER_BOUND ( 'NONE', #144, .T. ) ;
#11 = CARTESIAN_POINT ( 'NONE',  ( 0.0000000000000000000, 0.0000000000000000000, 0.0000000000000000000 ) ) ;
#12 = SHAPE_DEFINITION_REPRESENTATION ( #176, #150 ) ;
#13 = DIRECTION ( 'NONE',  ( 1.000000000000000000, 0.0000000000000000000, 0.0000000000000000000 ) ) ;
#14 = APPLICATION_PROTOCOL_DEFINITION ( 'draft international standard', 'automotive_design', 1998, #174 ) ;
#15 = DIRECTION ( 'NONE',  ( 0.0000000000000000000, 0.0000000000000000000, 1.000000000000000000 ) ) ;
#16 =( NAMED_UNIT ( * ) PLANE_ANGLE_UNIT ( ) SI_UNIT ( $, .RADIAN. ) );
#17 =( NAMED_UNIT ( * ) SI_UNIT ( $, .STERADIAN. ) SOLID_ANGLE_UNIT ( ) );
#18 =( LENGTH_UNIT ( ) NAMED_UNIT ( * ) SI_UNIT ( $, .METRE. ) );
#19 = SURFACE_STYLE_USAGE ( .BOTH. , #21 ) ;
#20 = PRESENTATION_STYLE_ASSIGNMENT (( #19 ) ) ;
#21 = SURFACE_SIDE_STYLE ('',( #22 ) ) ;
#22 = SURFACE_STYLE_FILL_AREA ( #23 ) ;
#23 = FILL_AREA_STYLE ('',( #24 ) ) ;
#24 = FILL_AREA_STYLE_COLOUR ( '', #168 ) ;
#25 = APPLICATION_PROTOCOL_DEFINITION ( 'draft international standard', 'automotive_design', 1998, #175 ) ;
#26 = ORIENTED_EDGE ( 'NONE', *, *, #172, .F. ) ;
#27 = PRODUCT_CONTEXT ( 'NONE', #175, 'mechanical' ) ;
#28 = ORIENTED_EDGE ( 'NONE', *, *, #156, .F. ) ;
#29 =( NAMED_UNIT ( * ) SI_UNIT ( $, .STERADIAN. ) SOLID_ANGLE_UNIT ( ) );
#30 = ORIENTED_EDGE ( 'NONE', *, *, #160, .T. ) ;
#31 =( NAMED_UNIT ( * ) PLANE_ANGLE_UNIT ( ) SI_UNIT ( $, .RADIAN. ) );
#32 =( CONVERSION_BASED_UNIT ( 'INCH', #194 ) LENGTH_UNIT ( ) NAMED_UNIT ( #3 ) );
#33 =( LENGTH_UNIT ( ) NAMED_UNIT ( * ) SI_UNIT ( $, .METRE. ) );
#34 =( NAMED_UNIT ( * ) SI_UNIT ( $, .STERADIAN. ) SOLID_ANGLE_UNIT ( ) );
#35 =( NAMED_UNIT ( * ) PLANE_ANGLE_UNIT ( ) SI_UNIT ( $, .RADIAN. ) );
#36 =( CONVERSION_BASED_UNIT ( 'INCH', #186 ) LENGTH_UNIT ( ) NAMED_UNIT ( #2 ) );
#37 =( LENGTH_UNIT ( ) NAMED_UNIT ( * ) SI_UNIT ( $, .METRE. ) );
#38 = PRESENTATION_STYLE_ASSIGNMENT (( #39 ) ) ;
#39 = SURFACE_STYLE_USAGE ( .BOTH. , #40 ) ;
#40 = SURFACE_SIDE_STYLE ('',( #41 ) ) ;
#41 = SURFACE_STYLE_FILL_AREA ( #42 ) ;
#42 = FILL_AREA_STYLE ('',( #43 ) ) ;
#43 = FILL_AREA_STYLE_COLOUR ( '', #159 ) ;
#44 = DIRECTION ( 'NONE',  ( -1.000000000000000000, 0.0000000000000000000, -2.694222958124177000E-016 ) ) ;
#45 = DIRECTION ( 'NONE',  ( 2.694222958124177000E-016, 0.0000000000000000000, -1.000000000000000000 ) ) ;
#46 = CARTESIAN_POINT ( 'NONE',  ( 0.3125000000000000000, 0.1250000000000000000, 8.419446744138052500E-017 ) ) ;
#47 = DIRECTION ( 'NONE',  ( -0.0000000000000000000, -1.000000000000000000, -0.0000000000000000000 ) ) ;
#48 = CARTESIAN_POINT ( 'NONE',  ( 0.3125000000000000000, 0.1250000000000000000, 8.419446744138052500E-017 ) ) ;
#49 = LINE ( 'NONE', #48, #193 ) ;
#50 = DIRECTION ( 'NONE',  ( -9.106159978880874900E-017, -0.0000000000000000000, -1.000000000000000000 ) ) ;
#51 = CARTESIAN_POINT ( 'NONE',  ( 0.3124999999999997200, 0.1250000000000000000, -3.000000000000000900 ) ) ;
#52 = LINE ( 'NONE', #51, #196 ) ;
#53 = PLANE ( 'NONE',  #192 ) ;
#54 = DIRECTION ( 'NONE',  ( -0.0000000000000000000, -0.0000000000000000000, 1.000000000000000000 ) ) ;
#55 = CARTESIAN_POINT ( 'NONE',  ( 0.0000000000000000000, 0.0000000000000000000, 0.0000000000000000000 ) ) ;
#56 = LINE ( 'NONE', #55, #197 ) ;
#57 = DIRECTION ( 'NONE',  ( 0.0000000000000000000, 0.0000000000000000000, -1.000000000000000000 ) ) ;
#58 = DIRECTION ( 'NONE',  ( 1.000000000000000000, -0.0000000000000000000, 0.0000000000000000000 ) ) ;
#59 = CARTESIAN_POINT ( 'NONE',  ( 0.0000000000000000000, 0.1250000000000000000, 0.0000000000000000000 ) ) ;
#60 = PLANE ( 'NONE',  #198 ) ;
#61 = DIRECTION ( 'NONE',  ( 9.106159978880874900E-017, 0.0000000000000000000, 1.000000000000000000 ) ) ;
#62 = DIRECTION ( 'NONE',  ( -1.000000000000000000, 0.0000000000000000000, 9.106159978880874900E-017 ) ) ;
#63 = CARTESIAN_POINT ( 'NONE',  ( 0.3124999999999997200, 0.1250000000000000000, -3.000000000000000900 ) ) ;
#64 = PLANE ( 'NONE',  #200 ) ;
#65 = DIRECTION ( 'NONE',  ( 0.0000000000000000000, 0.0000000000000000000, -1.000000000000000000 ) ) ;
#66 = DIRECTION ( 'NONE',  ( 0.0000000000000000000, -1.000000000000000000, 0.0000000000000000000 ) ) ;
#67 = CARTESIAN_POINT ( 'NONE',  ( 0.0000000000000000000, 0.0000000000000000000, 0.0000000000000000000 ) ) ;
#68 = PLANE ( 'NONE',  #202 ) ;
#69 = DIRECTION ( 'NONE',  ( 1.000000000000000000, 0.0000000000000000000, -0.0000000000000000000 ) ) ;
#70 = DIRECTION ( 'NONE',  ( 0.0000000000000000000, 0.0000000000000000000, 1.000000000000000000 ) ) ;
#71 = CARTESIAN_POINT ( 'NONE',  ( 0.0000000000000000000, 0.1250000000000000000, -3.000000000000000900 ) ) ;
#72 = PLANE ( 'NONE',  #204 ) ;
#73 = DIRECTION ( 'NONE',  ( 0.0000000000000000000, 0.0000000000000000000, -1.000000000000000000 ) ) ;
#74 = DIRECTION ( 'NONE',  ( 0.0000000000000000000, -1.000000000000000000, 0.0000000000000000000 ) ) ;
#75 = CARTESIAN_POINT ( 'NONE',  ( 0.0000000000000000000, 0.1250000000000000000, 0.0000000000000000000 ) ) ;
#76 =( CONVERSION_BASED_UNIT ( 'INCH', #184 ) LENGTH_UNIT ( ) NAMED_UNIT ( #1 ) );
#77 = DIRECTION ( 'NONE',  ( -9.106159978880874900E-017, -0.0000000000000000000, -1.000000000000000000 ) ) ;
#78 = CARTESIAN_POINT ( 'NONE',  ( 0.3124999999999997200, 0.0000000000000000000, -3.000000000000000900 ) ) ;
#79 = LINE ( 'NONE', #78, #206 ) ;
#80 = DIRECTION ( 'NONE',  ( -0.0000000000000000000, -1.000000000000000000, -0.0000000000000000000 ) ) ;
#81 = CARTESIAN_POINT ( 'NONE',  ( 0.3124999999999997200, 0.1250000000000000000, -3.000000000000000900 ) ) ;
#82 = LINE ( 'NONE', #81, #205 ) ;
#83 = DIRECTION ( 'NONE',  ( -0.0000000000000000000, -1.000000000000000000, -0.0000000000000000000 ) ) ;
#84 = CARTESIAN_POINT ( 'NONE',  ( 0.0000000000000000000, 0.1250000000000000000, 0.0000000000000000000 ) ) ;
#85 = LINE ( 'NONE', #84, #181 ) ;
#86 = DIRECTION ( 'NONE',  ( 1.000000000000000000, -0.0000000000000000000, 2.694222958124177000E-016 ) ) ;
#87 = CARTESIAN_POINT ( 'NONE',  ( 0.3125000000000000000, 0.0000000000000000000, 8.419446744138052500E-017 ) ) ;
#88 = LINE ( 'NONE', #87, #180 ) ;
#89 = DIRECTION ( 'NONE',  ( -0.0000000000000000000, -0.0000000000000000000, 1.000000000000000000 ) ) ;
#90 = CARTESIAN_POINT ( 'NONE',  ( 0.0000000000000000000, 0.1250000000000000000, 0.0000000000000000000 ) ) ;
#91 = LINE ( 'NONE', #90, #182 ) ;
#92 = VERTEX_POINT ( 'NONE', #115 ) ;
#93 = ORIENTED_EDGE ( 'NONE', *, *, #163, .T. ) ;
#94 = ORIENTED_EDGE ( 'NONE', *, *, #161, .T. ) ;
#95 = LINE ( 'NONE', #96, #5 ) ;
#96 = CARTESIAN_POINT ( 'NONE',  ( 0.0000000000000000000, 0.0000000000000000000, -3.000000000000000900 ) ) ;
#97 = DIRECTION ( 'NONE',  ( -1.000000000000000000, -0.0000000000000000000, -0.0000000000000000000 ) ) ;
#98 = LINE ( 'NONE', #99, #7 ) ;
#99 = CARTESIAN_POINT ( 'NONE',  ( 0.3125000000000000000, 0.1250000000000000000, 8.419446744138052500E-017 ) ) ;
#100 = DIRECTION ( 'NONE',  ( 1.000000000000000000, -0.0000000000000000000, 2.694222958124177000E-016 ) ) ;
#101 = LINE ( 'NONE', #103, #8 ) ;
#102 = DIRECTION ( 'NONE',  ( -1.000000000000000000, -0.0000000000000000000, -0.0000000000000000000 ) ) ;
#103 = CARTESIAN_POINT ( 'NONE',  ( 0.0000000000000000000, 0.1250000000000000000, -3.000000000000000900 ) ) ;
#104 = CARTESIAN_POINT ( 'NONE',  ( 0.0000000000000000000, 0.1250000000000000000, -3.000000000000000900 ) ) ;
#105 = DIRECTION ( 'NONE',  ( -0.0000000000000000000, -1.000000000000000000, -0.0000000000000000000 ) ) ;
#106 = PLANE ( 'NONE',  #179 ) ;
#107 = LINE ( 'NONE', #104, #9 ) ;
#108 = CARTESIAN_POINT ( 'NONE',  ( 0.3125000000000000000, 0.0000000000000000000, 8.419446744138052500E-017 ) ) ;
#109 = CARTESIAN_POINT ( 'NONE',  ( 0.3125000000000000000, 0.1250000000000000000, 8.419446744138052500E-017 ) ) ;
#110 = CARTESIAN_POINT ( 'NONE',  ( 0.0000000000000000000, 0.1250000000000000000, 0.0000000000000000000 ) ) ;
#111 = CARTESIAN_POINT ( 'NONE',  ( 0.3124999999999997200, 0.0000000000000000000, -3.000000000000000900 ) ) ;
#112 = CARTESIAN_POINT ( 'NONE',  ( 0.3124999999999997200, 0.1250000000000000000, -3.000000000000000900 ) ) ;
#113 = CARTESIAN_POINT ( 'NONE',  ( 0.0000000000000000000, 0.0000000000000000000, -3.000000000000000900 ) ) ;
#114 = CARTESIAN_POINT ( 'NONE',  ( 0.0000000000000000000, 0.1250000000000000000, -3.000000000000000900 ) ) ;
#115 = CARTESIAN_POINT ( 'NONE',  ( 0.0000000000000000000, 0.0000000000000000000, 0.0000000000000000000 ) ) ;
#116 = ORIENTED_EDGE ( 'NONE', *, *, #171, .F. ) ;
#117 = ORIENTED_EDGE ( 'NONE', *, *, #162, .F. ) ;
#118 = ORIENTED_EDGE ( 'NONE', *, *, #157, .F. ) ;
#119 = ORIENTED_EDGE ( 'NONE', *, *, #170, .F. ) ;
#120 = ORIENTED_EDGE ( 'NONE', *, *, #160, .F. ) ;
#121 = ORIENTED_EDGE ( 'NONE', *, *, #163, .F. ) ;
#122 = ORIENTED_EDGE ( 'NONE', *, *, #155, .T. ) ;
#123 = ORIENTED_EDGE ( 'NONE', *, *, #171, .T. ) ;
#124 = ORIENTED_EDGE ( 'NONE', *, *, #156, .T. ) ;
#125 = ORIENTED_EDGE ( 'NONE', *, *, #153, .T. ) ;
#126 = ORIENTED_EDGE ( 'NONE', *, *, #158, .T. ) ;
#127 = ORIENTED_EDGE ( 'NONE', *, *, #161, .F. ) ;
#128 = ORIENTED_EDGE ( 'NONE', *, *, #170, .T. ) ;
#129 = ORIENTED_EDGE ( 'NONE', *, *, #158, .F. ) ;
#130 = ORIENTED_EDGE ( 'NONE', *, *, #162, .T. ) ;
#131 = ORIENTED_EDGE ( 'NONE', *, *, #153, .F. ) ;
#132 = ORIENTED_EDGE ( 'NONE', *, *, #155, .F. ) ;
#133 = ORIENTED_EDGE ( 'NONE', *, *, #157, .T. ) ;
#134 = ORIENTED_EDGE ( 'NONE', *, *, #172, .T. ) ;
#135 = VERTEX_POINT ( 'NONE', #114 ) ;
#136 = VERTEX_POINT ( 'NONE', #113 ) ;
#137 = VERTEX_POINT ( 'NONE', #112 ) ;
#138 = VERTEX_POINT ( 'NONE', #111 ) ;
#139 = VERTEX_POINT ( 'NONE', #110 ) ;
#140 = EDGE_LOOP ( 'NONE', ( #133, #131, #132, #130 ) ) ;
#141 = EDGE_LOOP ( 'NONE', ( #30, #26, #28, #94 ) ) ;
#142 = EDGE_LOOP ( 'NONE', ( #93, #117, #116, #134 ) ) ;
#143 = EDGE_LOOP ( 'NONE', ( #128, #127, #129, #125 ) ) ;
#144 = EDGE_LOOP ( 'NONE', ( #124, #123, #122, #126 ) ) ;
#145 = EDGE_LOOP ( 'NONE', ( #120, #119, #118, #121 ) ) ;
#146 = VERTEX_POINT ( 'NONE', #109 ) ;
#147 = VERTEX_POINT ( 'NONE', #108 ) ;
#148 = UNCERTAINTY_MEASURE_WITH_UNIT (LENGTH_MEASURE( 1.000000000000000100E-005 ), #32, 'distance_accuracy_value', 'NONE');
#149 = UNCERTAINTY_MEASURE_WITH_UNIT (LENGTH_MEASURE( 1.000000000000000100E-005 ), #36, 'distance_accuracy_value', 'NONE');
#150 = ADVANCED_BREP_SHAPE_REPRESENTATION ( 'P125-3516W', ( #177, #189 ), #210 ) ;
#151 = UNCERTAINTY_MEASURE_WITH_UNIT (LENGTH_MEASURE( 1.000000000000000100E-005 ), #76, 'distance_accuracy_value', 'NONE');
#152 = PRODUCT_DEFINITION ( 'UNKNOWN', '', #190, #178 ) ;
#153 = EDGE_CURVE ( 'NONE', #135, #136, #107, .T. ) ;
#154 = PRODUCT_RELATED_PRODUCT_CATEGORY ( 'part', '', ( #4 ) ) ;
#155 = EDGE_CURVE ( 'NONE', #137, #135, #101, .T. ) ;
#156 = EDGE_CURVE ( 'NONE', #139, #146, #98, .T. ) ;
#157 = EDGE_CURVE ( 'NONE', #138, #136, #95, .T. ) ;
#158 = EDGE_CURVE ( 'NONE', #135, #139, #91, .T. ) ;
#159 = COLOUR_RGB ( '',0.5686274509803921400, 0.5686274509803921400, 0.5882352941176470800 ) ;
#160 = EDGE_CURVE ( 'NONE', #92, #147, #88, .T. ) ;
#161 = EDGE_CURVE ( 'NONE', #139, #92, #85, .T. ) ;
#162 = EDGE_CURVE ( 'NONE', #137, #138, #82, .T. ) ;
#163 = EDGE_CURVE ( 'NONE', #147, #138, #79, .T. ) ;
#164 = ADVANCED_FACE ( 'NONE', ( #10 ), #106, .F. ) ;
#165 = ADVANCED_FACE ( 'NONE', ( #208 ), #72, .F. ) ;
#166 = ADVANCED_FACE ( 'NONE', ( #207 ), #68, .T. ) ;
#167 = ADVANCED_FACE ( 'NONE', ( #203 ), #64, .F. ) ;
#168 = COLOUR_RGB ( '',0.5686274509803921400, 0.5686274509803921400, 0.5882352941176470800 ) ;
#169 = ADVANCED_FACE ( 'NONE', ( #201 ), #60, .F. ) ;
#170 = EDGE_CURVE ( 'NONE', #136, #92, #56, .T. ) ;
#171 = EDGE_CURVE ( 'NONE', #146, #137, #52, .T. ) ;
#172 = EDGE_CURVE ( 'NONE', #146, #147, #49, .T. ) ;
#173 = ADVANCED_FACE ( 'NONE', ( #199 ), #53, .F. ) ;
#174 = APPLICATION_CONTEXT ( 'automotive_design' ) ;
#175 = APPLICATION_CONTEXT ( 'automotive_design' ) ;
#176 = PRODUCT_DEFINITION_SHAPE ( 'NONE', 'NONE',  #152 ) ;
#177 = MANIFOLD_SOLID_BREP ( 'Boss-Extrude1', #6 ) ;
#178 = PRODUCT_DEFINITION_CONTEXT ( 'detailed design', #174, 'design' ) ;
#179 = AXIS2_PLACEMENT_3D ( 'NONE', #75, #74, #73 ) ;
#180 = VECTOR ( 'NONE', #86, 39.37007874015748100 ) ;
#181 = VECTOR ( 'NONE', #83, 39.37007874015748100 ) ;
#182 = VECTOR ( 'NONE', #89, 39.37007874015748100 ) ;
#183 = PRESENTATION_LAYER_ASSIGNMENT (  '', '', ( #191 ) ) ;
#184 = LENGTH_MEASURE_WITH_UNIT ( LENGTH_MEASURE( 0.02539999999999999900 ), #18 );
#185 = MECHANICAL_DESIGN_GEOMETRIC_PRESENTATION_REPRESENTATION (  '', ( #191 ), #211 ) ;
#186 = LENGTH_MEASURE_WITH_UNIT ( LENGTH_MEASURE( 0.02539999999999999900 ), #37 );
#187 = MECHANICAL_DESIGN_GEOMETRIC_PRESENTATION_REPRESENTATION (  '', ( #195 ), #209 ) ;
#188 = PRESENTATION_LAYER_ASSIGNMENT (  '', '', ( #195 ) ) ;
#189 = AXIS2_PLACEMENT_3D ( 'NONE', #11, #15, #13 ) ;
#190 = PRODUCT_DEFINITION_FORMATION_WITH_SPECIFIED_SOURCE ( 'ANY', '', #4, .NOT_KNOWN. ) ;
#191 = STYLED_ITEM ( 'NONE', ( #20 ), #150 ) ;
#192 = AXIS2_PLACEMENT_3D ( 'NONE', #46, #45, #44 ) ;
#193 = VECTOR ( 'NONE', #47, 39.37007874015748100 ) ;
#194 = LENGTH_MEASURE_WITH_UNIT ( LENGTH_MEASURE( 0.02539999999999999900 ), #33 );
#195 = STYLED_ITEM ( 'NONE', ( #38 ), #177 ) ;
#196 = VECTOR ( 'NONE', #50, 39.37007874015748100 ) ;
#197 = VECTOR ( 'NONE', #54, 39.37007874015748100 ) ;
#198 = AXIS2_PLACEMENT_3D ( 'NONE', #59, #58, #57 ) ;
#199 = FACE_OUTER_BOUND ( 'NONE', #141, .T. ) ;
#200 = AXIS2_PLACEMENT_3D ( 'NONE', #63, #62, #61 ) ;
#201 = FACE_OUTER_BOUND ( 'NONE', #143, .T. ) ;
#202 = AXIS2_PLACEMENT_3D ( 'NONE', #67, #66, #65 ) ;
#203 = FACE_OUTER_BOUND ( 'NONE', #142, .T. ) ;
#204 = AXIS2_PLACEMENT_3D ( 'NONE', #71, #70, #69 ) ;
#205 = VECTOR ( 'NONE', #80, 39.37007874015748100 ) ;
#206 = VECTOR ( 'NONE', #77, 39.37007874015748100 ) ;
#207 = FACE_OUTER_BOUND ( 'NONE', #145, .T. ) ;
#208 = FACE_OUTER_BOUND ( 'NONE', #140, .T. ) ;
#209 =( GEOMETRIC_REPRESENTATION_CONTEXT ( 3 ) GLOBAL_UNCERTAINTY_ASSIGNED_CONTEXT ( ( #149 ) ) GLOBAL_UNIT_ASSIGNED_CONTEXT ( ( #36, #35, #34 ) ) REPRESENTATION_CONTEXT ( 'NONE', 'WORKASPACE' ) );
#210 =( GEOMETRIC_REPRESENTATION_CONTEXT ( 3 ) GLOBAL_UNCERTAINTY_ASSIGNED_CONTEXT ( ( #148 ) ) GLOBAL_UNIT_ASSIGNED_CONTEXT ( ( #32, #31, #29 ) ) REPRESENTATION_CONTEXT ( 'NONE', 'WORKASPACE' ) );
#211 =( GEOMETRIC_REPRESENTATION_CONTEXT ( 3 ) GLOBAL_UNCERTAINTY_ASSIGNED_CONTEXT ( ( #151 ) ) GLOBAL_UNIT_ASSIGNED_CONTEXT ( ( #76, #16, #17 ) ) REPRESENTATION_CONTEXT ( 'NONE', 'WORKASPACE' ) );
ENDSEC;
END-ISO-10303-21;
