ISO-10303-21;
HEADER;
FILE_DESCRIPTION (( 'STEP AP214' ),
    '1' );
FILE_NAME ('P125-6516W.step',
    '2012-04-20T21:00:31',
    ( '' ),
    ( '' ),
    'SwSTEP 2.0',
    'SolidWorks 2012',
    '' );
FILE_SCHEMA (( 'AUTOMOTIVE_DESIGN' ));
ENDSEC;

DATA;
#1 = DIMENSIONAL_EXPONENTS ( 1.000000000000000000, 0.0000000000000000000, 0.0000000000000000000, 0.0000000000000000000, 0.0000000000000000000, 0.0000000000000000000, 0.0000000000000000000 ) ;
#2 = PRODUCT ( 'P125-6516W', 'P125-6516W', '', ( #31 ) ) ;
#3 = DIMENSIONAL_EXPONENTS ( 1.000000000000000000, 0.0000000000000000000, 0.0000000000000000000, 0.0000000000000000000, 0.0000000000000000000, 0.0000000000000000000, 0.0000000000000000000 ) ;
#4 = DIMENSIONAL_EXPONENTS ( 1.000000000000000000, 0.0000000000000000000, 0.0000000000000000000, 0.0000000000000000000, 0.0000000000000000000, 0.0000000000000000000, 0.0000000000000000000 ) ;
#5 = UNCERTAINTY_MEASURE_WITH_UNIT (LENGTH_MEASURE( 1.000000000000000100E-005 ), #112, 'distance_accuracy_value', 'NONE');
#6 = UNCERTAINTY_MEASURE_WITH_UNIT (LENGTH_MEASURE( 1.000000000000000100E-005 ), #47, 'distance_accuracy_value', 'NONE');
#7 = ADVANCED_BREP_SHAPE_REPRESENTATION ( 'P125-6516W', ( #191, #189 ), #21 ) ;
#8 = UNCERTAINTY_MEASURE_WITH_UNIT (LENGTH_MEASURE( 1.000000000000000100E-005 ), #28, 'distance_accuracy_value', 'NONE');
#9 = STYLED_ITEM ( 'NONE', ( #114 ), #191 ) ;
#10 = CLOSED_SHELL ( 'NONE', ( #210, #209, #207, #200, #208, #193 ) ) ;
#11 = FACE_OUTER_BOUND ( 'NONE', #141, .T. ) ;
#12 = AXIS2_PLACEMENT_3D ( 'NONE', #108, #107, #106 ) ;
#13 = LENGTH_MEASURE_WITH_UNIT ( LENGTH_MEASURE( 0.02539999999999999900 ), #113 );
#14 = MECHANICAL_DESIGN_GEOMETRIC_PRESENTATION_REPRESENTATION (  '', ( #9 ), #20 ) ;
#15 = PRESENTATION_LAYER_ASSIGNMENT (  '', '', ( #9 ) ) ;
#16 = FACE_OUTER_BOUND ( 'NONE', #143, .T. ) ;
#17 = PRODUCT_DEFINITION ( 'UNKNOWN', '', #166, #192 ) ;
#18 = COLOUR_RGB ( '',0.5686274509803921400, 0.5686274509803921400, 0.5882352941176470800 ) ;
#19 = PRODUCT_RELATED_PRODUCT_CATEGORY ( 'part', '', ( #2 ) ) ;
#20 =( GEOMETRIC_REPRESENTATION_CONTEXT ( 3 ) GLOBAL_UNCERTAINTY_ASSIGNED_CONTEXT ( ( #5 ) ) GLOBAL_UNIT_ASSIGNED_CONTEXT ( ( #112, #111, #110 ) ) REPRESENTATION_CONTEXT ( 'NONE', 'WORKASPACE' ) );
#21 =( GEOMETRIC_REPRESENTATION_CONTEXT ( 3 ) GLOBAL_UNCERTAINTY_ASSIGNED_CONTEXT ( ( #6 ) ) GLOBAL_UNIT_ASSIGNED_CONTEXT ( ( #47, #46, #45 ) ) REPRESENTATION_CONTEXT ( 'NONE', 'WORKASPACE' ) );
#22 =( GEOMETRIC_REPRESENTATION_CONTEXT ( 3 ) GLOBAL_UNCERTAINTY_ASSIGNED_CONTEXT ( ( #8 ) ) GLOBAL_UNIT_ASSIGNED_CONTEXT ( ( #28, #26, #25 ) ) REPRESENTATION_CONTEXT ( 'NONE', 'WORKASPACE' ) );
#23 = CARTESIAN_POINT ( 'NONE',  ( 0.0000000000000000000, 0.0000000000000000000, 0.0000000000000000000 ) ) ;
#24 = DIRECTION ( 'NONE',  ( 0.0000000000000000000, 0.0000000000000000000, 1.000000000000000000 ) ) ;
#25 =( NAMED_UNIT ( * ) SI_UNIT ( $, .STERADIAN. ) SOLID_ANGLE_UNIT ( ) );
#26 =( NAMED_UNIT ( * ) PLANE_ANGLE_UNIT ( ) SI_UNIT ( $, .RADIAN. ) );
#27 = CARTESIAN_POINT ( 'NONE',  ( 0.3124999999999993300, 0.1250000000000000000, -6.000000000000000900 ) ) ;
#28 =( CONVERSION_BASED_UNIT ( 'INCH', #170 ) LENGTH_UNIT ( ) NAMED_UNIT ( #3 ) );
#29 = LINE ( 'NONE', #27, #179 ) ;
#30 =( LENGTH_UNIT ( ) NAMED_UNIT ( * ) SI_UNIT ( $, .METRE. ) );
#31 = PRODUCT_CONTEXT ( 'NONE', #160, 'mechanical' ) ;
#32 = APPLICATION_PROTOCOL_DEFINITION ( 'draft international standard', 'automotive_design', 1998, #161 ) ;
#33 = PRESENTATION_STYLE_ASSIGNMENT (( #34 ) ) ;
#34 = SURFACE_STYLE_USAGE ( .BOTH. , #35 ) ;
#35 = SURFACE_SIDE_STYLE ('',( #36 ) ) ;
#36 = SURFACE_STYLE_FILL_AREA ( #38 ) ;
#37 = SHAPE_DEFINITION_REPRESENTATION ( #190, #7 ) ;
#38 = FILL_AREA_STYLE ('',( #42 ) ) ;
#39 = DIRECTION ( 'NONE',  ( 1.000000000000000000, 0.0000000000000000000, 0.0000000000000000000 ) ) ;
#40 = ORIENTED_EDGE ( 'NONE', *, *, #197, .T. ) ;
#41 = ORIENTED_EDGE ( 'NONE', *, *, #195, .T. ) ;
#42 = FILL_AREA_STYLE_COLOUR ( '', #211 ) ;
#43 = ORIENTED_EDGE ( 'NONE', *, *, #204, .F. ) ;
#44 = APPLICATION_PROTOCOL_DEFINITION ( 'draft international standard', 'automotive_design', 1998, #160 ) ;
#45 =( NAMED_UNIT ( * ) SI_UNIT ( $, .STERADIAN. ) SOLID_ANGLE_UNIT ( ) );
#46 =( NAMED_UNIT ( * ) PLANE_ANGLE_UNIT ( ) SI_UNIT ( $, .RADIAN. ) );
#47 =( CONVERSION_BASED_UNIT ( 'INCH', #165 ) LENGTH_UNIT ( ) NAMED_UNIT ( #4 ) );
#48 = ORIENTED_EDGE ( 'NONE', *, *, #199, .T. ) ;
#49 = ORIENTED_EDGE ( 'NONE', *, *, #196, .T. ) ;
#50 = ORIENTED_EDGE ( 'NONE', *, *, #203, .T. ) ;
#51 =( LENGTH_UNIT ( ) NAMED_UNIT ( * ) SI_UNIT ( $, .METRE. ) );
#52 = CARTESIAN_POINT ( 'NONE',  ( 0.3125000000000000000, 0.1250000000000000000, 8.419446744138052500E-017 ) ) ;
#53 = DIRECTION ( 'NONE',  ( 2.694222958124177000E-016, 0.0000000000000000000, -1.000000000000000000 ) ) ;
#54 = DIRECTION ( 'NONE',  ( -1.000000000000000000, 0.0000000000000000000, -2.694222958124177000E-016 ) ) ;
#55 = DIRECTION ( 'NONE',  ( -1.000000000000000000, 0.0000000000000000000, 1.138269997360109700E-016 ) ) ;
#56 = PLANE ( 'NONE',  #169 ) ;
#57 = DIRECTION ( 'NONE',  ( 1.138269997360109700E-016, 0.0000000000000000000, 1.000000000000000000 ) ) ;
#58 = DIRECTION ( 'NONE',  ( 0.0000000000000000000, 0.0000000000000000000, -1.000000000000000000 ) ) ;
#59 = PLANE ( 'NONE',  #167 ) ;
#60 = CARTESIAN_POINT ( 'NONE',  ( 0.3124999999999993300, 0.1250000000000000000, -6.000000000000000900 ) ) ;
#61 = DIRECTION ( 'NONE',  ( 0.0000000000000000000, -1.000000000000000000, 0.0000000000000000000 ) ) ;
#62 = CARTESIAN_POINT ( 'NONE',  ( 0.0000000000000000000, 0.1250000000000000000, 0.0000000000000000000 ) ) ;
#63 = PLANE ( 'NONE',  #173 ) ;
#64 = DIRECTION ( 'NONE',  ( 1.000000000000000000, 0.0000000000000000000, -0.0000000000000000000 ) ) ;
#65 = DIRECTION ( 'NONE',  ( 0.0000000000000000000, 0.0000000000000000000, 1.000000000000000000 ) ) ;
#66 = CARTESIAN_POINT ( 'NONE',  ( 0.0000000000000000000, 0.1250000000000000000, -6.000000000000000900 ) ) ;
#67 = DIRECTION ( 'NONE',  ( -1.138269997360109700E-016, -0.0000000000000000000, -1.000000000000000000 ) ) ;
#68 = CARTESIAN_POINT ( 'NONE',  ( 0.3124999999999993300, 0.0000000000000000000, -6.000000000000000900 ) ) ;
#69 = LINE ( 'NONE', #68, #184 ) ;
#70 = DIRECTION ( 'NONE',  ( -0.0000000000000000000, -1.000000000000000000, -0.0000000000000000000 ) ) ;
#71 = CARTESIAN_POINT ( 'NONE',  ( 0.3124999999999993300, 0.1250000000000000000, -6.000000000000000900 ) ) ;
#72 = LINE ( 'NONE', #71, #162 ) ;
#73 = DIRECTION ( 'NONE',  ( -0.0000000000000000000, -1.000000000000000000, -0.0000000000000000000 ) ) ;
#74 = CARTESIAN_POINT ( 'NONE',  ( 0.0000000000000000000, 0.1250000000000000000, 0.0000000000000000000 ) ) ;
#75 = LINE ( 'NONE', #74, #181 ) ;
#76 = DIRECTION ( 'NONE',  ( 1.000000000000000000, -0.0000000000000000000, 2.694222958124177000E-016 ) ) ;
#77 = CARTESIAN_POINT ( 'NONE',  ( 0.3125000000000000000, 0.1250000000000000000, 8.419446744138052500E-017 ) ) ;
#78 = LINE ( 'NONE', #77, #168 ) ;
#79 = DIRECTION ( 'NONE',  ( 1.000000000000000000, -0.0000000000000000000, 2.694222958124177000E-016 ) ) ;
#80 = CARTESIAN_POINT ( 'NONE',  ( 0.3125000000000000000, 0.0000000000000000000, 8.419446744138052500E-017 ) ) ;
#81 = LINE ( 'NONE', #80, #174 ) ;
#82 = PLANE ( 'NONE',  #186 ) ;
#83 = DIRECTION ( 'NONE',  ( -0.0000000000000000000, -0.0000000000000000000, 1.000000000000000000 ) ) ;
#84 = CARTESIAN_POINT ( 'NONE',  ( 0.0000000000000000000, 0.0000000000000000000, 0.0000000000000000000 ) ) ;
#85 = LINE ( 'NONE', #84, #177 ) ;
#86 = DIRECTION ( 'NONE',  ( 0.0000000000000000000, 0.0000000000000000000, -1.000000000000000000 ) ) ;
#87 = DIRECTION ( 'NONE',  ( 1.000000000000000000, -0.0000000000000000000, 0.0000000000000000000 ) ) ;
#88 = CARTESIAN_POINT ( 'NONE',  ( 0.0000000000000000000, 0.1250000000000000000, 0.0000000000000000000 ) ) ;
#89 = DIRECTION ( 'NONE',  ( -1.000000000000000000, -0.0000000000000000000, -0.0000000000000000000 ) ) ;
#90 = CARTESIAN_POINT ( 'NONE',  ( 0.0000000000000000000, 0.1250000000000000000, -6.000000000000000900 ) ) ;
#91 = LINE ( 'NONE', #90, #182 ) ;
#92 = DIRECTION ( 'NONE',  ( -1.000000000000000000, -0.0000000000000000000, -0.0000000000000000000 ) ) ;
#93 = CARTESIAN_POINT ( 'NONE',  ( 0.0000000000000000000, 0.0000000000000000000, -6.000000000000000900 ) ) ;
#94 = LINE ( 'NONE', #93, #187 ) ;
#95 = DIRECTION ( 'NONE',  ( -0.0000000000000000000, -1.000000000000000000, -0.0000000000000000000 ) ) ;
#96 = CARTESIAN_POINT ( 'NONE',  ( 0.0000000000000000000, 0.1250000000000000000, -6.000000000000000900 ) ) ;
#97 = LINE ( 'NONE', #96, #176 ) ;
#98 = DIRECTION ( 'NONE',  ( -1.138269997360109700E-016, -0.0000000000000000000, -1.000000000000000000 ) ) ;
#99 = DIRECTION ( 'NONE',  ( -0.0000000000000000000, -0.0000000000000000000, 1.000000000000000000 ) ) ;
#100 = CARTESIAN_POINT ( 'NONE',  ( 0.0000000000000000000, 0.1250000000000000000, 0.0000000000000000000 ) ) ;
#101 = LINE ( 'NONE', #100, #180 ) ;
#102 = PLANE ( 'NONE',  #178 ) ;
#103 = DIRECTION ( 'NONE',  ( -0.0000000000000000000, -1.000000000000000000, -0.0000000000000000000 ) ) ;
#104 = CARTESIAN_POINT ( 'NONE',  ( 0.3125000000000000000, 0.1250000000000000000, 8.419446744138052500E-017 ) ) ;
#105 = LINE ( 'NONE', #104, #164 ) ;
#106 = DIRECTION ( 'NONE',  ( 0.0000000000000000000, 0.0000000000000000000, -1.000000000000000000 ) ) ;
#107 = DIRECTION ( 'NONE',  ( 0.0000000000000000000, -1.000000000000000000, 0.0000000000000000000 ) ) ;
#108 = CARTESIAN_POINT ( 'NONE',  ( 0.0000000000000000000, 0.0000000000000000000, 0.0000000000000000000 ) ) ;
#109 = PLANE ( 'NONE',  #12 ) ;
#110 =( NAMED_UNIT ( * ) SI_UNIT ( $, .STERADIAN. ) SOLID_ANGLE_UNIT ( ) );
#111 =( NAMED_UNIT ( * ) PLANE_ANGLE_UNIT ( ) SI_UNIT ( $, .RADIAN. ) );
#112 =( CONVERSION_BASED_UNIT ( 'INCH', #13 ) LENGTH_UNIT ( ) NAMED_UNIT ( #1 ) );
#113 =( LENGTH_UNIT ( ) NAMED_UNIT ( * ) SI_UNIT ( $, .METRE. ) );
#114 = PRESENTATION_STYLE_ASSIGNMENT (( #115 ) ) ;
#115 = SURFACE_STYLE_USAGE ( .BOTH. , #116 ) ;
#116 = SURFACE_SIDE_STYLE ('',( #117 ) ) ;
#117 = SURFACE_STYLE_FILL_AREA ( #118 ) ;
#118 = FILL_AREA_STYLE ('',( #119 ) ) ;
#119 = FILL_AREA_STYLE_COLOUR ( '', #18 ) ;
#120 = CARTESIAN_POINT ( 'NONE',  ( 0.0000000000000000000, 0.1250000000000000000, 0.0000000000000000000 ) ) ;
#121 = CARTESIAN_POINT ( 'NONE',  ( 0.0000000000000000000, 0.0000000000000000000, 0.0000000000000000000 ) ) ;
#122 = CARTESIAN_POINT ( 'NONE',  ( 0.3124999999999993300, 0.1250000000000000000, -6.000000000000000900 ) ) ;
#123 = CARTESIAN_POINT ( 'NONE',  ( 0.0000000000000000000, 0.0000000000000000000, -6.000000000000000900 ) ) ;
#124 = CARTESIAN_POINT ( 'NONE',  ( 0.3124999999999993300, 0.0000000000000000000, -6.000000000000000900 ) ) ;
#125 = CARTESIAN_POINT ( 'NONE',  ( 0.3125000000000000000, 0.0000000000000000000, 8.419446744138052500E-017 ) ) ;
#126 = CARTESIAN_POINT ( 'NONE',  ( 0.0000000000000000000, 0.1250000000000000000, -6.000000000000000900 ) ) ;
#127 = CARTESIAN_POINT ( 'NONE',  ( 0.3125000000000000000, 0.1250000000000000000, 8.419446744138052500E-017 ) ) ;
#128 = ORIENTED_EDGE ( 'NONE', *, *, #196, .F. ) ;
#129 = ORIENTED_EDGE ( 'NONE', *, *, #205, .F. ) ;
#130 = VERTEX_POINT ( 'NONE', #127 ) ;
#131 = VERTEX_POINT ( 'NONE', #126 ) ;
#132 = VERTEX_POINT ( 'NONE', #125 ) ;
#133 = VERTEX_POINT ( 'NONE', #124 ) ;
#134 = VERTEX_POINT ( 'NONE', #123 ) ;
#135 = VERTEX_POINT ( 'NONE', #122 ) ;
#136 = VERTEX_POINT ( 'NONE', #121 ) ;
#137 = VERTEX_POINT ( 'NONE', #120 ) ;
#138 = EDGE_LOOP ( 'NONE', ( #148, #146, #147, #145 ) ) ;
#139 = EDGE_LOOP ( 'NONE', ( #144, #129, #128, #155 ) ) ;
#140 = EDGE_LOOP ( 'NONE', ( #154, #152, #153, #151 ) ) ;
#141 = EDGE_LOOP ( 'NONE', ( #149, #43, #150, #40 ) ) ;
#142 = EDGE_LOOP ( 'NONE', ( #50, #49, #48, #41 ) ) ;
#143 = EDGE_LOOP ( 'NONE', ( #158, #157, #156, #159 ) ) ;
#144 = ORIENTED_EDGE ( 'NONE', *, *, #206, .T. ) ;
#145 = ORIENTED_EDGE ( 'NONE', *, *, #204, .T. ) ;
#146 = ORIENTED_EDGE ( 'NONE', *, *, #194, .F. ) ;
#147 = ORIENTED_EDGE ( 'NONE', *, *, #203, .F. ) ;
#148 = ORIENTED_EDGE ( 'NONE', *, *, #202, .T. ) ;
#149 = ORIENTED_EDGE ( 'NONE', *, *, #201, .T. ) ;
#150 = ORIENTED_EDGE ( 'NONE', *, *, #195, .F. ) ;
#151 = ORIENTED_EDGE ( 'NONE', *, *, #205, .T. ) ;
#152 = ORIENTED_EDGE ( 'NONE', *, *, #197, .F. ) ;
#153 = ORIENTED_EDGE ( 'NONE', *, *, #199, .F. ) ;
#154 = ORIENTED_EDGE ( 'NONE', *, *, #198, .T. ) ;
#155 = ORIENTED_EDGE ( 'NONE', *, *, #194, .T. ) ;
#156 = ORIENTED_EDGE ( 'NONE', *, *, #198, .F. ) ;
#157 = ORIENTED_EDGE ( 'NONE', *, *, #201, .F. ) ;
#158 = ORIENTED_EDGE ( 'NONE', *, *, #202, .F. ) ;
#159 = ORIENTED_EDGE ( 'NONE', *, *, #206, .F. ) ;
#160 = APPLICATION_CONTEXT ( 'automotive_design' ) ;
#161 = APPLICATION_CONTEXT ( 'automotive_design' ) ;
#162 = VECTOR ( 'NONE', #70, 39.37007874015748100 ) ;
#163 = FACE_OUTER_BOUND ( 'NONE', #138, .T. ) ;
#164 = VECTOR ( 'NONE', #103, 39.37007874015748100 ) ;
#165 = LENGTH_MEASURE_WITH_UNIT ( LENGTH_MEASURE( 0.02539999999999999900 ), #51 );
#166 = PRODUCT_DEFINITION_FORMATION_WITH_SPECIFIED_SOURCE ( 'ANY', '', #2, .NOT_KNOWN. ) ;
#167 = AXIS2_PLACEMENT_3D ( 'NONE', #60, #55, #57 ) ;
#168 = VECTOR ( 'NONE', #76, 39.37007874015748100 ) ;
#169 = AXIS2_PLACEMENT_3D ( 'NONE', #52, #53, #54 ) ;
#170 = LENGTH_MEASURE_WITH_UNIT ( LENGTH_MEASURE( 0.02539999999999999900 ), #30 );
#171 = FACE_OUTER_BOUND ( 'NONE', #140, .T. ) ;
#172 = STYLED_ITEM ( 'NONE', ( #33 ), #7 ) ;
#173 = AXIS2_PLACEMENT_3D ( 'NONE', #62, #61, #58 ) ;
#174 = VECTOR ( 'NONE', #79, 39.37007874015748100 ) ;
#175 = MECHANICAL_DESIGN_GEOMETRIC_PRESENTATION_REPRESENTATION (  '', ( #172 ), #22 ) ;
#176 = VECTOR ( 'NONE', #95, 39.37007874015748100 ) ;
#177 = VECTOR ( 'NONE', #83, 39.37007874015748100 ) ;
#178 = AXIS2_PLACEMENT_3D ( 'NONE', #88, #87, #86 ) ;
#179 = VECTOR ( 'NONE', #98, 39.37007874015748100 ) ;
#180 = VECTOR ( 'NONE', #99, 39.37007874015748100 ) ;
#181 = VECTOR ( 'NONE', #73, 39.37007874015748100 ) ;
#182 = VECTOR ( 'NONE', #89, 39.37007874015748100 ) ;
#183 = FACE_OUTER_BOUND ( 'NONE', #142, .T. ) ;
#184 = VECTOR ( 'NONE', #67, 39.37007874015748100 ) ;
#185 = PRESENTATION_LAYER_ASSIGNMENT (  '', '', ( #172 ) ) ;
#186 = AXIS2_PLACEMENT_3D ( 'NONE', #66, #65, #64 ) ;
#187 = VECTOR ( 'NONE', #92, 39.37007874015748100 ) ;
#188 = FACE_OUTER_BOUND ( 'NONE', #139, .T. ) ;
#189 = AXIS2_PLACEMENT_3D ( 'NONE', #23, #24, #39 ) ;
#190 = PRODUCT_DEFINITION_SHAPE ( 'NONE', 'NONE',  #17 ) ;
#191 = MANIFOLD_SOLID_BREP ( 'Boss-Extrude1', #10 ) ;
#192 = PRODUCT_DEFINITION_CONTEXT ( 'detailed design', #161, 'design' ) ;
#193 = ADVANCED_FACE ( 'NONE', ( #16 ), #109, .T. ) ;
#194 = EDGE_CURVE ( 'NONE', #130, #132, #105, .T. ) ;
#195 = EDGE_CURVE ( 'NONE', #131, #137, #101, .T. ) ;
#196 = EDGE_CURVE ( 'NONE', #130, #135, #29, .T. ) ;
#197 = EDGE_CURVE ( 'NONE', #131, #134, #97, .T. ) ;
#198 = EDGE_CURVE ( 'NONE', #133, #134, #94, .T. ) ;
#199 = EDGE_CURVE ( 'NONE', #135, #131, #91, .T. ) ;
#200 = ADVANCED_FACE ( 'NONE', ( #11 ), #102, .F. ) ;
#201 = EDGE_CURVE ( 'NONE', #134, #136, #85, .T. ) ;
#202 = EDGE_CURVE ( 'NONE', #136, #132, #81, .T. ) ;
#203 = EDGE_CURVE ( 'NONE', #137, #130, #78, .T. ) ;
#204 = EDGE_CURVE ( 'NONE', #137, #136, #75, .T. ) ;
#205 = EDGE_CURVE ( 'NONE', #135, #133, #72, .T. ) ;
#206 = EDGE_CURVE ( 'NONE', #132, #133, #69, .T. ) ;
#207 = ADVANCED_FACE ( 'NONE', ( #171 ), #82, .F. ) ;
#208 = ADVANCED_FACE ( 'NONE', ( #183 ), #63, .F. ) ;
#209 = ADVANCED_FACE ( 'NONE', ( #188 ), #59, .F. ) ;
#210 = ADVANCED_FACE ( 'NONE', ( #163 ), #56, .F. ) ;
#211 = COLOUR_RGB ( '',0.5686274509803921400, 0.5686274509803921400, 0.5882352941176470800 ) ;
ENDSEC;
END-ISO-10303-21;
