ISO-10303-21;
HEADER;
FILE_DESCRIPTION (( 'STEP AP214' ),
    '1' );
FILE_NAME ('P125AD.step',
    '2012-04-20T21:00:34',
    ( '' ),
    ( '' ),
    'SwSTEP 2.0',
    'SolidWorks 2012',
    '' );
FILE_SCHEMA (( 'AUTOMOTIVE_DESIGN' ));
ENDSEC;

DATA;
#1 = DIMENSIONAL_EXPONENTS ( 1.000000000000000000, 0.0000000000000000000, 0.0000000000000000000, 0.0000000000000000000, 0.0000000000000000000, 0.0000000000000000000, 0.0000000000000000000 ) ;
#2 = PRODUCT ( 'P125AD', 'P125AD', '', ( #19 ) ) ;
#3 = DIMENSIONAL_EXPONENTS ( 1.000000000000000000, 0.0000000000000000000, 0.0000000000000000000, 0.0000000000000000000, 0.0000000000000000000, 0.0000000000000000000, 0.0000000000000000000 ) ;
#4 = DIMENSIONAL_EXPONENTS ( 1.000000000000000000, 0.0000000000000000000, 0.0000000000000000000, 0.0000000000000000000, 0.0000000000000000000, 0.0000000000000000000, 0.0000000000000000000 ) ;
#5 = MECHANICAL_DESIGN_GEOMETRIC_PRESENTATION_REPRESENTATION (  '', ( #6 ), #14 ) ;
#6 = STYLED_ITEM ( 'NONE', ( #88 ), #164 ) ;
#7 = CLOSED_SHELL ( 'NONE', ( #211, #197, #161, #207, #209, #208 ) ) ;
#8 = VECTOR ( 'NONE', #106, 39.37007874015748100 ) ;
#9 = VECTOR ( 'NONE', #99, 39.37007874015748100 ) ;
#10 = AXIS2_PLACEMENT_3D ( 'NONE', #96, #95, #94 ) ;
#11 = PRESENTATION_LAYER_ASSIGNMENT (  '', '', ( #6 ) ) ;
#12 = VECTOR ( 'NONE', #97, 39.37007874015748100 ) ;
#13 = FACE_OUTER_BOUND ( 'NONE', #141, .T. ) ;
#14 =( GEOMETRIC_REPRESENTATION_CONTEXT ( 3 ) GLOBAL_UNCERTAINTY_ASSIGNED_CONTEXT ( ( #157 ) ) GLOBAL_UNIT_ASSIGNED_CONTEXT ( ( #86, #85, #84 ) ) REPRESENTATION_CONTEXT ( 'NONE', 'WORKASPACE' ) );
#15 =( GEOMETRIC_REPRESENTATION_CONTEXT ( 3 ) GLOBAL_UNCERTAINTY_ASSIGNED_CONTEXT ( ( #155 ) ) GLOBAL_UNIT_ASSIGNED_CONTEXT ( ( #33, #31, #29 ) ) REPRESENTATION_CONTEXT ( 'NONE', 'WORKASPACE' ) );
#16 =( GEOMETRIC_REPRESENTATION_CONTEXT ( 3 ) GLOBAL_UNCERTAINTY_ASSIGNED_CONTEXT ( ( #156 ) ) GLOBAL_UNIT_ASSIGNED_CONTEXT ( ( #17, #21, #36 ) ) REPRESENTATION_CONTEXT ( 'NONE', 'WORKASPACE' ) );
#17 =( CONVERSION_BASED_UNIT ( 'INCH', #181 ) LENGTH_UNIT ( ) NAMED_UNIT ( #3 ) );
#18 = APPLICATION_PROTOCOL_DEFINITION ( 'draft international standard', 'automotive_design', 1998, #192 ) ;
#19 = PRODUCT_CONTEXT ( 'NONE', #193, 'mechanical' ) ;
#20 = DIRECTION ( 'NONE',  ( 0.0000000000000000000, 0.0000000000000000000, 1.000000000000000000 ) ) ;
#21 =( NAMED_UNIT ( * ) PLANE_ANGLE_UNIT ( ) SI_UNIT ( $, .RADIAN. ) );
#22 =( LENGTH_UNIT ( ) NAMED_UNIT ( * ) SI_UNIT ( $, .METRE. ) );
#23 = PRESENTATION_STYLE_ASSIGNMENT (( #24 ) ) ;
#24 = SURFACE_STYLE_USAGE ( .BOTH. , #30 ) ;
#25 = FILL_AREA_STYLE ('',( #27 ) ) ;
#26 = SURFACE_STYLE_FILL_AREA ( #25 ) ;
#27 = FILL_AREA_STYLE_COLOUR ( '', #204 ) ;
#28 = APPLICATION_PROTOCOL_DEFINITION ( 'draft international standard', 'automotive_design', 1998, #193 ) ;
#29 =( NAMED_UNIT ( * ) SI_UNIT ( $, .STERADIAN. ) SOLID_ANGLE_UNIT ( ) );
#30 = SURFACE_SIDE_STYLE ('',( #26 ) ) ;
#31 =( NAMED_UNIT ( * ) PLANE_ANGLE_UNIT ( ) SI_UNIT ( $, .RADIAN. ) );
#32 = DIRECTION ( 'NONE',  ( 1.000000000000000000, 0.0000000000000000000, 0.0000000000000000000 ) ) ;
#33 =( CONVERSION_BASED_UNIT ( 'INCH', #177 ) LENGTH_UNIT ( ) NAMED_UNIT ( #1 ) );
#34 = SHAPE_DEFINITION_REPRESENTATION ( #162, #154 ) ;
#35 =( LENGTH_UNIT ( ) NAMED_UNIT ( * ) SI_UNIT ( $, .METRE. ) );
#36 =( NAMED_UNIT ( * ) SI_UNIT ( $, .STERADIAN. ) SOLID_ANGLE_UNIT ( ) );
#37 = DIRECTION ( 'NONE',  ( -1.000000000000000000, 0.0000000000000000000, -1.836970198721029700E-016 ) ) ;
#38 = DIRECTION ( 'NONE',  ( 1.836970198721029700E-016, 0.0000000000000000000, -1.000000000000000000 ) ) ;
#39 = CARTESIAN_POINT ( 'NONE',  ( 0.1250000000000000000, 0.1250000000000000000, 2.296212748401287100E-017 ) ) ;
#40 = CARTESIAN_POINT ( 'NONE',  ( 0.0000000000000000000, 0.1250000000000000000, -0.4999999999999996100 ) ) ;
#41 = DIRECTION ( 'NONE',  ( -1.000000000000000000, -0.0000000000000000000, -0.0000000000000000000 ) ) ;
#42 = DIRECTION ( 'NONE',  ( 0.0000000000000000000, 0.0000000000000000000, -1.000000000000000000 ) ) ;
#43 = PLANE ( 'NONE',  #191 ) ;
#44 = LINE ( 'NONE', #40, #170 ) ;
#45 = DIRECTION ( 'NONE',  ( 0.0000000000000000000, -1.000000000000000000, 0.0000000000000000000 ) ) ;
#46 = CARTESIAN_POINT ( 'NONE',  ( 0.0000000000000000000, 0.1250000000000000000, 0.0000000000000000000 ) ) ;
#47 = PLANE ( 'NONE',  #178 ) ;
#48 = DIRECTION ( 'NONE',  ( 0.0000000000000000000, 0.0000000000000000000, -1.000000000000000000 ) ) ;
#49 = DIRECTION ( 'NONE',  ( 0.0000000000000000000, -1.000000000000000000, 0.0000000000000000000 ) ) ;
#50 = CARTESIAN_POINT ( 'NONE',  ( 0.0000000000000000000, 0.0000000000000000000, 0.0000000000000000000 ) ) ;
#51 = PLANE ( 'NONE',  #190 ) ;
#52 = DIRECTION ( 'NONE',  ( 0.0000000000000000000, 0.0000000000000000000, -1.000000000000000000 ) ) ;
#53 = DIRECTION ( 'NONE',  ( 1.000000000000000000, -0.0000000000000000000, 0.0000000000000000000 ) ) ;
#54 = CARTESIAN_POINT ( 'NONE',  ( 0.0000000000000000000, 0.1250000000000000000, 0.0000000000000000000 ) ) ;
#55 = DIRECTION ( 'NONE',  ( 1.000000000000000000, -0.0000000000000000000, 1.836970198721029700E-016 ) ) ;
#56 = CARTESIAN_POINT ( 'NONE',  ( 0.1250000000000000000, 0.1250000000000000000, 2.296212748401287100E-017 ) ) ;
#57 = LINE ( 'NONE', #56, #187 ) ;
#58 = DIRECTION ( 'NONE',  ( -0.0000000000000000000, -1.000000000000000000, -0.0000000000000000000 ) ) ;
#59 = CARTESIAN_POINT ( 'NONE',  ( 0.1249999999999999000, 0.1250000000000000000, -0.4999999999999996100 ) ) ;
#60 = LINE ( 'NONE', #59, #171 ) ;
#61 = DIRECTION ( 'NONE',  ( -1.000000000000000000, -0.0000000000000000000, -0.0000000000000000000 ) ) ;
#62 = CARTESIAN_POINT ( 'NONE',  ( 0.0000000000000000000, 0.0000000000000000000, -0.4999999999999996100 ) ) ;
#63 = LINE ( 'NONE', #62, #186 ) ;
#64 = DIRECTION ( 'NONE',  ( -2.048885995248199100E-016, -0.0000000000000000000, -1.000000000000000000 ) ) ;
#65 = CARTESIAN_POINT ( 'NONE',  ( 0.1249999999999999000, 0.0000000000000000000, -0.4999999999999996100 ) ) ;
#66 = LINE ( 'NONE', #65, #169 ) ;
#67 = PLANE ( 'NONE',  #185 ) ;
#68 = DIRECTION ( 'NONE',  ( -0.0000000000000000000, -0.0000000000000000000, 1.000000000000000000 ) ) ;
#69 = CARTESIAN_POINT ( 'NONE',  ( 0.0000000000000000000, 0.0000000000000000000, 0.0000000000000000000 ) ) ;
#70 = LINE ( 'NONE', #69, #166 ) ;
#71 = DIRECTION ( 'NONE',  ( 2.048885995248199100E-016, 0.0000000000000000000, 1.000000000000000000 ) ) ;
#72 = DIRECTION ( 'NONE',  ( -1.000000000000000000, 0.0000000000000000000, 2.048885995248199100E-016 ) ) ;
#73 = CARTESIAN_POINT ( 'NONE',  ( 0.1249999999999999000, 0.1250000000000000000, -0.4999999999999996100 ) ) ;
#74 = DIRECTION ( 'NONE',  ( -0.0000000000000000000, -1.000000000000000000, -0.0000000000000000000 ) ) ;
#75 = CARTESIAN_POINT ( 'NONE',  ( 0.0000000000000000000, 0.1250000000000000000, -0.4999999999999996100 ) ) ;
#76 = LINE ( 'NONE', #75, #173 ) ;
#77 = DIRECTION ( 'NONE',  ( -2.048885995248199100E-016, -0.0000000000000000000, -1.000000000000000000 ) ) ;
#78 = CARTESIAN_POINT ( 'NONE',  ( 0.1249999999999999000, 0.1250000000000000000, -0.4999999999999996100 ) ) ;
#79 = LINE ( 'NONE', #78, #176 ) ;
#80 = PLANE ( 'NONE',  #175 ) ;
#81 = DIRECTION ( 'NONE',  ( -0.0000000000000000000, -1.000000000000000000, -0.0000000000000000000 ) ) ;
#82 = CARTESIAN_POINT ( 'NONE',  ( 0.0000000000000000000, 0.1250000000000000000, 0.0000000000000000000 ) ) ;
#83 = LINE ( 'NONE', #82, #172 ) ;
#84 =( NAMED_UNIT ( * ) SI_UNIT ( $, .STERADIAN. ) SOLID_ANGLE_UNIT ( ) );
#85 =( NAMED_UNIT ( * ) PLANE_ANGLE_UNIT ( ) SI_UNIT ( $, .RADIAN. ) );
#86 =( CONVERSION_BASED_UNIT ( 'INCH', #165 ) LENGTH_UNIT ( ) NAMED_UNIT ( #4 ) );
#87 =( LENGTH_UNIT ( ) NAMED_UNIT ( * ) SI_UNIT ( $, .METRE. ) );
#88 = PRESENTATION_STYLE_ASSIGNMENT (( #89 ) ) ;
#89 = SURFACE_STYLE_USAGE ( .BOTH. , #90 ) ;
#90 = SURFACE_SIDE_STYLE ('',( #91 ) ) ;
#91 = SURFACE_STYLE_FILL_AREA ( #92 ) ;
#92 = FILL_AREA_STYLE ('',( #93 ) ) ;
#93 = FILL_AREA_STYLE_COLOUR ( '', #205 ) ;
#94 = DIRECTION ( 'NONE',  ( 1.000000000000000000, 0.0000000000000000000, -0.0000000000000000000 ) ) ;
#95 = DIRECTION ( 'NONE',  ( 0.0000000000000000000, 0.0000000000000000000, 1.000000000000000000 ) ) ;
#96 = CARTESIAN_POINT ( 'NONE',  ( 0.0000000000000000000, 0.1250000000000000000, -0.4999999999999996100 ) ) ;
#97 = DIRECTION ( 'NONE',  ( 1.000000000000000000, -0.0000000000000000000, 1.836970198721029700E-016 ) ) ;
#98 = CARTESIAN_POINT ( 'NONE',  ( 0.0000000000000000000, 0.0000000000000000000, 0.0000000000000000000 ) ) ;
#99 = DIRECTION ( 'NONE',  ( -0.0000000000000000000, -0.0000000000000000000, 1.000000000000000000 ) ) ;
#100 = LINE ( 'NONE', #101, #12 ) ;
#101 = CARTESIAN_POINT ( 'NONE',  ( 0.1250000000000000000, 0.0000000000000000000, 2.296212748401287100E-017 ) ) ;
#102 = PLANE ( 'NONE',  #10 ) ;
#103 = LINE ( 'NONE', #104, #9 ) ;
#104 = CARTESIAN_POINT ( 'NONE',  ( 0.0000000000000000000, 0.1250000000000000000, 0.0000000000000000000 ) ) ;
#105 = LINE ( 'NONE', #107, #8 ) ;
#106 = DIRECTION ( 'NONE',  ( -0.0000000000000000000, -1.000000000000000000, -0.0000000000000000000 ) ) ;
#107 = CARTESIAN_POINT ( 'NONE',  ( 0.1250000000000000000, 0.1250000000000000000, 2.296212748401287100E-017 ) ) ;
#108 = CARTESIAN_POINT ( 'NONE',  ( 0.0000000000000000000, 0.0000000000000000000, 0.0000000000000000000 ) ) ;
#109 = CARTESIAN_POINT ( 'NONE',  ( 0.0000000000000000000, 0.1250000000000000000, -0.4999999999999996100 ) ) ;
#110 = CARTESIAN_POINT ( 'NONE',  ( 0.1249999999999999000, 0.1250000000000000000, -0.4999999999999996100 ) ) ;
#111 = CARTESIAN_POINT ( 'NONE',  ( 0.0000000000000000000, 0.0000000000000000000, -0.4999999999999996100 ) ) ;
#112 = CARTESIAN_POINT ( 'NONE',  ( 0.1249999999999999000, 0.0000000000000000000, -0.4999999999999996100 ) ) ;
#113 = CARTESIAN_POINT ( 'NONE',  ( 0.0000000000000000000, 0.1250000000000000000, 0.0000000000000000000 ) ) ;
#114 = CARTESIAN_POINT ( 'NONE',  ( 0.1250000000000000000, 0.0000000000000000000, 2.296212748401287100E-017 ) ) ;
#115 = CARTESIAN_POINT ( 'NONE',  ( 0.1250000000000000000, 0.1250000000000000000, 2.296212748401287100E-017 ) ) ;
#116 = ORIENTED_EDGE ( 'NONE', *, *, #198, .T. ) ;
#117 = ORIENTED_EDGE ( 'NONE', *, *, #159, .F. ) ;
#118 = ORIENTED_EDGE ( 'NONE', *, *, #201, .T. ) ;
#119 = ORIENTED_EDGE ( 'NONE', *, *, #196, .F. ) ;
#120 = ORIENTED_EDGE ( 'NONE', *, *, #210, .F. ) ;
#121 = ORIENTED_EDGE ( 'NONE', *, *, #200, .T. ) ;
#122 = ORIENTED_EDGE ( 'NONE', *, *, #158, .T. ) ;
#123 = ORIENTED_EDGE ( 'NONE', *, *, #201, .F. ) ;
#124 = ORIENTED_EDGE ( 'NONE', *, *, #195, .F. ) ;
#125 = ORIENTED_EDGE ( 'NONE', *, *, #199, .T. ) ;
#126 = ORIENTED_EDGE ( 'NONE', *, *, #194, .T. ) ;
#127 = ORIENTED_EDGE ( 'NONE', *, *, #158, .F. ) ;
#128 = ORIENTED_EDGE ( 'NONE', *, *, #202, .F. ) ;
#129 = VERTEX_POINT ( 'NONE', #115 ) ;
#130 = VERTEX_POINT ( 'NONE', #114 ) ;
#131 = VERTEX_POINT ( 'NONE', #113 ) ;
#132 = VERTEX_POINT ( 'NONE', #112 ) ;
#133 = VERTEX_POINT ( 'NONE', #111 ) ;
#134 = VERTEX_POINT ( 'NONE', #108 ) ;
#135 = VERTEX_POINT ( 'NONE', #109 ) ;
#136 = VERTEX_POINT ( 'NONE', #110 ) ;
#137 = EDGE_LOOP ( 'NONE', ( #116, #152, #117, #150 ) ) ;
#138 = EDGE_LOOP ( 'NONE', ( #149, #148, #147, #151 ) ) ;
#139 = EDGE_LOOP ( 'NONE', ( #145, #144, #143, #146 ) ) ;
#140 = EDGE_LOOP ( 'NONE', ( #125, #123, #124, #122 ) ) ;
#141 = EDGE_LOOP ( 'NONE', ( #121, #119, #120, #118 ) ) ;
#142 = EDGE_LOOP ( 'NONE', ( #153, #127, #128, #126 ) ) ;
#143 = ORIENTED_EDGE ( 'NONE', *, *, #200, .F. ) ;
#144 = ORIENTED_EDGE ( 'NONE', *, *, #198, .F. ) ;
#145 = ORIENTED_EDGE ( 'NONE', *, *, #160, .F. ) ;
#146 = ORIENTED_EDGE ( 'NONE', *, *, #199, .F. ) ;
#147 = ORIENTED_EDGE ( 'NONE', *, *, #210, .T. ) ;
#148 = ORIENTED_EDGE ( 'NONE', *, *, #195, .T. ) ;
#149 = ORIENTED_EDGE ( 'NONE', *, *, #202, .T. ) ;
#150 = ORIENTED_EDGE ( 'NONE', *, *, #196, .T. ) ;
#151 = ORIENTED_EDGE ( 'NONE', *, *, #159, .T. ) ;
#152 = ORIENTED_EDGE ( 'NONE', *, *, #194, .F. ) ;
#153 = ORIENTED_EDGE ( 'NONE', *, *, #160, .T. ) ;
#154 = ADVANCED_BREP_SHAPE_REPRESENTATION ( 'P125AD', ( #164, #182 ), #15 ) ;
#155 = UNCERTAINTY_MEASURE_WITH_UNIT (LENGTH_MEASURE( 1.000000000000000100E-005 ), #33, 'distance_accuracy_value', 'NONE');
#156 = UNCERTAINTY_MEASURE_WITH_UNIT (LENGTH_MEASURE( 1.000000000000000100E-005 ), #17, 'distance_accuracy_value', 'NONE');
#157 = UNCERTAINTY_MEASURE_WITH_UNIT (LENGTH_MEASURE( 1.000000000000000100E-005 ), #86, 'distance_accuracy_value', 'NONE');
#158 = EDGE_CURVE ( 'NONE', #129, #130, #105, .T. ) ;
#159 = EDGE_CURVE ( 'NONE', #135, #131, #103, .T. ) ;
#160 = EDGE_CURVE ( 'NONE', #134, #130, #100, .T. ) ;
#161 = ADVANCED_FACE ( 'NONE', ( #13 ), #102, .F. ) ;
#162 = PRODUCT_DEFINITION_SHAPE ( 'NONE', 'NONE',  #203 ) ;
#163 = PRODUCT_DEFINITION_CONTEXT ( 'detailed design', #192, 'design' ) ;
#164 = MANIFOLD_SOLID_BREP ( 'Boss-Extrude1', #7 ) ;
#165 = LENGTH_MEASURE_WITH_UNIT ( LENGTH_MEASURE( 0.02539999999999999900 ), #87 );
#166 = VECTOR ( 'NONE', #68, 39.37007874015748100 ) ;
#167 = STYLED_ITEM ( 'NONE', ( #23 ), #154 ) ;
#168 = FACE_OUTER_BOUND ( 'NONE', #138, .T. ) ;
#169 = VECTOR ( 'NONE', #64, 39.37007874015748100 ) ;
#170 = VECTOR ( 'NONE', #41, 39.37007874015748100 ) ;
#171 = VECTOR ( 'NONE', #58, 39.37007874015748100 ) ;
#172 = VECTOR ( 'NONE', #81, 39.37007874015748100 ) ;
#173 = VECTOR ( 'NONE', #74, 39.37007874015748100 ) ;
#174 = FACE_OUTER_BOUND ( 'NONE', #137, .T. ) ;
#175 = AXIS2_PLACEMENT_3D ( 'NONE', #73, #72, #71 ) ;
#176 = VECTOR ( 'NONE', #77, 39.37007874015748100 ) ;
#177 = LENGTH_MEASURE_WITH_UNIT ( LENGTH_MEASURE( 0.02539999999999999900 ), #35 );
#178 = AXIS2_PLACEMENT_3D ( 'NONE', #46, #45, #42 ) ;
#179 = PRESENTATION_LAYER_ASSIGNMENT (  '', '', ( #167 ) ) ;
#180 = FACE_OUTER_BOUND ( 'NONE', #140, .T. ) ;
#181 = LENGTH_MEASURE_WITH_UNIT ( LENGTH_MEASURE( 0.02539999999999999900 ), #22 );
#182 = AXIS2_PLACEMENT_3D ( 'NONE', #98, #20, #32 ) ;
#183 = PRODUCT_DEFINITION_FORMATION_WITH_SPECIFIED_SOURCE ( 'ANY', '', #2, .NOT_KNOWN. ) ;
#184 = MECHANICAL_DESIGN_GEOMETRIC_PRESENTATION_REPRESENTATION (  '', ( #167 ), #16 ) ;
#185 = AXIS2_PLACEMENT_3D ( 'NONE', #54, #53, #52 ) ;
#186 = VECTOR ( 'NONE', #61, 39.37007874015748100 ) ;
#187 = VECTOR ( 'NONE', #55, 39.37007874015748100 ) ;
#188 = FACE_OUTER_BOUND ( 'NONE', #139, .T. ) ;
#189 = FACE_OUTER_BOUND ( 'NONE', #142, .T. ) ;
#190 = AXIS2_PLACEMENT_3D ( 'NONE', #50, #49, #48 ) ;
#191 = AXIS2_PLACEMENT_3D ( 'NONE', #39, #38, #37 ) ;
#192 = APPLICATION_CONTEXT ( 'automotive_design' ) ;
#193 = APPLICATION_CONTEXT ( 'automotive_design' ) ;
#194 = EDGE_CURVE ( 'NONE', #131, #134, #83, .T. ) ;
#195 = EDGE_CURVE ( 'NONE', #129, #136, #79, .T. ) ;
#196 = EDGE_CURVE ( 'NONE', #135, #133, #76, .T. ) ;
#197 = ADVANCED_FACE ( 'NONE', ( #180 ), #80, .F. ) ;
#198 = EDGE_CURVE ( 'NONE', #133, #134, #70, .T. ) ;
#199 = EDGE_CURVE ( 'NONE', #130, #132, #66, .T. ) ;
#200 = EDGE_CURVE ( 'NONE', #132, #133, #63, .T. ) ;
#201 = EDGE_CURVE ( 'NONE', #136, #132, #60, .T. ) ;
#202 = EDGE_CURVE ( 'NONE', #131, #129, #57, .T. ) ;
#203 = PRODUCT_DEFINITION ( 'UNKNOWN', '', #183, #163 ) ;
#204 = COLOUR_RGB ( '',0.5686274509803921400, 0.5686274509803921400, 0.5882352941176470800 ) ;
#205 = COLOUR_RGB ( '',0.5686274509803921400, 0.5686274509803921400, 0.5882352941176470800 ) ;
#206 = PRODUCT_RELATED_PRODUCT_CATEGORY ( 'part', '', ( #2 ) ) ;
#207 = ADVANCED_FACE ( 'NONE', ( #174 ), #67, .F. ) ;
#208 = ADVANCED_FACE ( 'NONE', ( #188 ), #51, .T. ) ;
#209 = ADVANCED_FACE ( 'NONE', ( #168 ), #47, .F. ) ;
#210 = EDGE_CURVE ( 'NONE', #136, #135, #44, .T. ) ;
#211 = ADVANCED_FACE ( 'NONE', ( #189 ), #43, .F. ) ;
ENDSEC;
END-ISO-10303-21;
