ISO-10303-21;
HEADER;
FILE_DESCRIPTION (( 'STEP AP214' ),
    '1' );
FILE_NAME ('P125AH.step',
    '2012-04-20T21:00:36',
    ( '' ),
    ( '' ),
    'SwSTEP 2.0',
    'SolidWorks 2012',
    '' );
FILE_SCHEMA (( 'AUTOMOTIVE_DESIGN' ));
ENDSEC;

DATA;
#1 = DIMENSIONAL_EXPONENTS ( 1.000000000000000000, 0.0000000000000000000, 0.0000000000000000000, 0.0000000000000000000, 0.0000000000000000000, 0.0000000000000000000, 0.0000000000000000000 ) ;
#2 = PRODUCT ( 'P125AH', 'P125AH', '', ( #29 ) ) ;
#3 = DIMENSIONAL_EXPONENTS ( 1.000000000000000000, 0.0000000000000000000, 0.0000000000000000000, 0.0000000000000000000, 0.0000000000000000000, 0.0000000000000000000, 0.0000000000000000000 ) ;
#4 = DIMENSIONAL_EXPONENTS ( 1.000000000000000000, 0.0000000000000000000, 0.0000000000000000000, 0.0000000000000000000, 0.0000000000000000000, 0.0000000000000000000, 0.0000000000000000000 ) ;
#5 = AXIS2_PLACEMENT_3D ( 'NONE', #98, #97, #96 ) ;
#6 = VECTOR ( 'NONE', #88, 39.37007874015748100 ) ;
#7 = VECTOR ( 'NONE', #92, 39.37007874015748100 ) ;
#8 = FACE_OUTER_BOUND ( 'NONE', #124, .T. ) ;
#9 = CLOSED_SHELL ( 'NONE', ( #199, #203, #197, #185, #205, #198 ) ) ;
#10 = VECTOR ( 'NONE', #100, 39.37007874015748100 ) ;
#11 = FACE_OUTER_BOUND ( 'NONE', #121, .T. ) ;
#12 =( LENGTH_UNIT ( ) NAMED_UNIT ( * ) SI_UNIT ( $, .METRE. ) );
#13 = APPLICATION_PROTOCOL_DEFINITION ( 'draft international standard', 'automotive_design', 1998, #150 ) ;
#14 =( CONVERSION_BASED_UNIT ( 'INCH', #166 ) LENGTH_UNIT ( ) NAMED_UNIT ( #1 ) );
#15 = SURFACE_SIDE_STYLE ('',( #18 ) ) ;
#16 = PRESENTATION_STYLE_ASSIGNMENT (( #17 ) ) ;
#17 = SURFACE_STYLE_USAGE ( .BOTH. , #15 ) ;
#18 = SURFACE_STYLE_FILL_AREA ( #20 ) ;
#19 =( NAMED_UNIT ( * ) PLANE_ANGLE_UNIT ( ) SI_UNIT ( $, .RADIAN. ) );
#20 = FILL_AREA_STYLE ('',( #21 ) ) ;
#21 = FILL_AREA_STYLE_COLOUR ( '', #189 ) ;
#22 = APPLICATION_PROTOCOL_DEFINITION ( 'draft international standard', 'automotive_design', 1998, #149 ) ;
#23 =( NAMED_UNIT ( * ) SI_UNIT ( $, .STERADIAN. ) SOLID_ANGLE_UNIT ( ) );
#24 =( NAMED_UNIT ( * ) PLANE_ANGLE_UNIT ( ) SI_UNIT ( $, .RADIAN. ) );
#25 = SHAPE_DEFINITION_REPRESENTATION ( #206, #151 ) ;
#26 =( CONVERSION_BASED_UNIT ( 'INCH', #159 ) LENGTH_UNIT ( ) NAMED_UNIT ( #3 ) );
#27 =( NAMED_UNIT ( * ) SI_UNIT ( $, .STERADIAN. ) SOLID_ANGLE_UNIT ( ) );
#28 =( LENGTH_UNIT ( ) NAMED_UNIT ( * ) SI_UNIT ( $, .METRE. ) );
#29 = PRODUCT_CONTEXT ( 'NONE', #149, 'mechanical' ) ;
#30 =( NAMED_UNIT ( * ) PLANE_ANGLE_UNIT ( ) SI_UNIT ( $, .RADIAN. ) );
#31 =( CONVERSION_BASED_UNIT ( 'INCH', #155 ) LENGTH_UNIT ( ) NAMED_UNIT ( #4 ) );
#32 =( LENGTH_UNIT ( ) NAMED_UNIT ( * ) SI_UNIT ( $, .METRE. ) );
#33 = PRESENTATION_STYLE_ASSIGNMENT (( #34 ) ) ;
#34 = SURFACE_STYLE_USAGE ( .BOTH. , #35 ) ;
#35 = SURFACE_SIDE_STYLE ('',( #36 ) ) ;
#36 = SURFACE_STYLE_FILL_AREA ( #37 ) ;
#37 = FILL_AREA_STYLE ('',( #38 ) ) ;
#38 = FILL_AREA_STYLE_COLOUR ( '', #202 ) ;
#39 = DIRECTION ( 'NONE',  ( 0.0000000000000000000, 0.0000000000000000000, -1.000000000000000000 ) ) ;
#40 = DIRECTION ( 'NONE',  ( 0.0000000000000000000, -1.000000000000000000, 0.0000000000000000000 ) ) ;
#41 = CARTESIAN_POINT ( 'NONE',  ( 0.0000000000000000000, 0.1250000000000000000, 0.0000000000000000000 ) ) ;
#42 = PLANE ( 'NONE',  #168 ) ;
#43 = DIRECTION ( 'NONE',  ( -0.0000000000000000000, -0.0000000000000000000, 1.000000000000000000 ) ) ;
#44 = CARTESIAN_POINT ( 'NONE',  ( 0.0000000000000000000, 0.0000000000000000000, 0.0000000000000000000 ) ) ;
#45 = LINE ( 'NONE', #44, #158 ) ;
#46 = DIRECTION ( 'NONE',  ( 1.195183497228115000E-016, 0.0000000000000000000, 1.000000000000000000 ) ) ;
#47 = DIRECTION ( 'NONE',  ( -1.000000000000000000, 0.0000000000000000000, 1.195183497228115000E-016 ) ) ;
#48 = CARTESIAN_POINT ( 'NONE',  ( 0.1249999999999998800, 0.1250000000000000000, -1.000000000000000000 ) ) ;
#49 = DIRECTION ( 'NONE',  ( 1.000000000000000000, -0.0000000000000000000, 1.836970198721029700E-016 ) ) ;
#50 = CARTESIAN_POINT ( 'NONE',  ( 0.1250000000000000000, 0.1250000000000000000, 2.296212748401287100E-017 ) ) ;
#51 = LINE ( 'NONE', #50, #177 ) ;
#52 = PLANE ( 'NONE',  #172 ) ;
#53 = DIRECTION ( 'NONE',  ( -0.0000000000000000000, -1.000000000000000000, -0.0000000000000000000 ) ) ;
#54 = CARTESIAN_POINT ( 'NONE',  ( 0.0000000000000000000, 0.1250000000000000000, 0.0000000000000000000 ) ) ;
#55 = LINE ( 'NONE', #54, #162 ) ;
#56 = DIRECTION ( 'NONE',  ( -1.000000000000000000, 0.0000000000000000000, -1.836970198721029700E-016 ) ) ;
#57 = DIRECTION ( 'NONE',  ( 1.836970198721029700E-016, 0.0000000000000000000, -1.000000000000000000 ) ) ;
#58 = CARTESIAN_POINT ( 'NONE',  ( 0.1250000000000000000, 0.1250000000000000000, 2.296212748401287100E-017 ) ) ;
#59 = PLANE ( 'NONE',  #167 ) ;
#60 = DIRECTION ( 'NONE',  ( 0.0000000000000000000, 0.0000000000000000000, -1.000000000000000000 ) ) ;
#61 = DIRECTION ( 'NONE',  ( 0.0000000000000000000, -1.000000000000000000, 0.0000000000000000000 ) ) ;
#62 = CARTESIAN_POINT ( 'NONE',  ( 0.0000000000000000000, 0.0000000000000000000, 0.0000000000000000000 ) ) ;
#63 = PLANE ( 'NONE',  #173 ) ;
#64 = DIRECTION ( 'NONE',  ( 1.000000000000000000, 0.0000000000000000000, -0.0000000000000000000 ) ) ;
#65 = DIRECTION ( 'NONE',  ( 0.0000000000000000000, 0.0000000000000000000, 1.000000000000000000 ) ) ;
#66 = CARTESIAN_POINT ( 'NONE',  ( 0.0000000000000000000, 0.1250000000000000000, -1.000000000000000000 ) ) ;
#67 = DIRECTION ( 'NONE',  ( -0.0000000000000000000, -0.0000000000000000000, 1.000000000000000000 ) ) ;
#68 = DIRECTION ( 'NONE',  ( 1.000000000000000000, 0.0000000000000000000, 0.0000000000000000000 ) ) ;
#69 = DIRECTION ( 'NONE',  ( 0.0000000000000000000, 0.0000000000000000000, 1.000000000000000000 ) ) ;
#70 = CARTESIAN_POINT ( 'NONE',  ( 0.0000000000000000000, 0.0000000000000000000, 0.0000000000000000000 ) ) ;
#71 = DIRECTION ( 'NONE',  ( -0.0000000000000000000, -1.000000000000000000, -0.0000000000000000000 ) ) ;
#72 = LINE ( 'NONE', #73, #182 ) ;
#73 = CARTESIAN_POINT ( 'NONE',  ( 0.0000000000000000000, 0.1250000000000000000, 0.0000000000000000000 ) ) ;
#74 = DIRECTION ( 'NONE',  ( -1.195183497228115000E-016, -0.0000000000000000000, -1.000000000000000000 ) ) ;
#75 = LINE ( 'NONE', #76, #169 ) ;
#76 = CARTESIAN_POINT ( 'NONE',  ( 0.1249999999999998800, 0.1250000000000000000, -1.000000000000000000 ) ) ;
#77 = DIRECTION ( 'NONE',  ( -1.195183497228115000E-016, -0.0000000000000000000, -1.000000000000000000 ) ) ;
#78 = CARTESIAN_POINT ( 'NONE',  ( 0.1249999999999998800, 0.0000000000000000000, -1.000000000000000000 ) ) ;
#79 = LINE ( 'NONE', #78, #164 ) ;
#80 = DIRECTION ( 'NONE',  ( 1.000000000000000000, -0.0000000000000000000, 1.836970198721029700E-016 ) ) ;
#81 = LINE ( 'NONE', #82, #178 ) ;
#82 = CARTESIAN_POINT ( 'NONE',  ( 0.1249999999999998800, 0.1250000000000000000, -1.000000000000000000 ) ) ;
#83 = CARTESIAN_POINT ( 'NONE',  ( 0.1250000000000000000, 0.0000000000000000000, 2.296212748401287100E-017 ) ) ;
#84 = LINE ( 'NONE', #83, #165 ) ;
#85 = DIRECTION ( 'NONE',  ( -0.0000000000000000000, -1.000000000000000000, -0.0000000000000000000 ) ) ;
#86 = CARTESIAN_POINT ( 'NONE',  ( 0.0000000000000000000, 0.1250000000000000000, -1.000000000000000000 ) ) ;
#87 = LINE ( 'NONE', #86, #181 ) ;
#88 = DIRECTION ( 'NONE',  ( -1.000000000000000000, -0.0000000000000000000, -0.0000000000000000000 ) ) ;
#89 = CARTESIAN_POINT ( 'NONE',  ( 0.0000000000000000000, 0.0000000000000000000, -1.000000000000000000 ) ) ;
#90 = LINE ( 'NONE', #89, #6 ) ;
#91 = PLANE ( 'NONE',  #180 ) ;
#92 = DIRECTION ( 'NONE',  ( -0.0000000000000000000, -1.000000000000000000, -0.0000000000000000000 ) ) ;
#93 = CARTESIAN_POINT ( 'NONE',  ( 0.1250000000000000000, 0.1250000000000000000, 2.296212748401287100E-017 ) ) ;
#94 =( NAMED_UNIT ( * ) SI_UNIT ( $, .STERADIAN. ) SOLID_ANGLE_UNIT ( ) );
#95 = LINE ( 'NONE', #93, #7 ) ;
#96 = DIRECTION ( 'NONE',  ( 0.0000000000000000000, 0.0000000000000000000, -1.000000000000000000 ) ) ;
#97 = DIRECTION ( 'NONE',  ( 1.000000000000000000, -0.0000000000000000000, 0.0000000000000000000 ) ) ;
#98 = CARTESIAN_POINT ( 'NONE',  ( 0.0000000000000000000, 0.1250000000000000000, 0.0000000000000000000 ) ) ;
#99 = PLANE ( 'NONE',  #5 ) ;
#100 = DIRECTION ( 'NONE',  ( -1.000000000000000000, -0.0000000000000000000, -0.0000000000000000000 ) ) ;
#101 = CARTESIAN_POINT ( 'NONE',  ( 0.0000000000000000000, 0.1250000000000000000, -1.000000000000000000 ) ) ;
#102 = LINE ( 'NONE', #101, #10 ) ;
#103 = CARTESIAN_POINT ( 'NONE',  ( 0.0000000000000000000, 0.0000000000000000000, -1.000000000000000000 ) ) ;
#104 = CARTESIAN_POINT ( 'NONE',  ( 0.0000000000000000000, 0.1250000000000000000, -1.000000000000000000 ) ) ;
#105 = CARTESIAN_POINT ( 'NONE',  ( 0.1249999999999998800, 0.1250000000000000000, -1.000000000000000000 ) ) ;
#106 = CARTESIAN_POINT ( 'NONE',  ( 0.1249999999999998800, 0.0000000000000000000, -1.000000000000000000 ) ) ;
#107 = CARTESIAN_POINT ( 'NONE',  ( 0.1250000000000000000, 0.1250000000000000000, 2.296212748401287100E-017 ) ) ;
#108 = CARTESIAN_POINT ( 'NONE',  ( 0.0000000000000000000, 0.1250000000000000000, 0.0000000000000000000 ) ) ;
#109 = CARTESIAN_POINT ( 'NONE',  ( 0.1250000000000000000, 0.0000000000000000000, 2.296212748401287100E-017 ) ) ;
#110 = CARTESIAN_POINT ( 'NONE',  ( 0.0000000000000000000, 0.0000000000000000000, 0.0000000000000000000 ) ) ;
#111 = ORIENTED_EDGE ( 'NONE', *, *, #192, .T. ) ;
#112 = VERTEX_POINT ( 'NONE', #110 ) ;
#113 = VERTEX_POINT ( 'NONE', #109 ) ;
#114 = VERTEX_POINT ( 'NONE', #108 ) ;
#115 = VERTEX_POINT ( 'NONE', #107 ) ;
#116 = VERTEX_POINT ( 'NONE', #106 ) ;
#117 = VERTEX_POINT ( 'NONE', #105 ) ;
#118 = VERTEX_POINT ( 'NONE', #104 ) ;
#119 = VERTEX_POINT ( 'NONE', #103 ) ;
#120 = EDGE_LOOP ( 'NONE', ( #145, #143, #144, #142 ) ) ;
#121 = EDGE_LOOP ( 'NONE', ( #141, #139, #140, #138 ) ) ;
#122 = EDGE_LOOP ( 'NONE', ( #128, #127, #126, #129 ) ) ;
#123 = EDGE_LOOP ( 'NONE', ( #111, #147, #148, #146 ) ) ;
#124 = EDGE_LOOP ( 'NONE', ( #136, #135, #137, #133 ) ) ;
#125 = EDGE_LOOP ( 'NONE', ( #132, #131, #130, #134 ) ) ;
#126 = ORIENTED_EDGE ( 'NONE', *, *, #190, .F. ) ;
#127 = ORIENTED_EDGE ( 'NONE', *, *, #204, .F. ) ;
#128 = ORIENTED_EDGE ( 'NONE', *, *, #192, .F. ) ;
#129 = ORIENTED_EDGE ( 'NONE', *, *, #194, .F. ) ;
#130 = ORIENTED_EDGE ( 'NONE', *, *, #184, .T. ) ;
#131 = ORIENTED_EDGE ( 'NONE', *, *, #193, .T. ) ;
#132 = ORIENTED_EDGE ( 'NONE', *, *, #201, .T. ) ;
#133 = ORIENTED_EDGE ( 'NONE', *, *, #191, .T. ) ;
#134 = ORIENTED_EDGE ( 'NONE', *, *, #196, .T. ) ;
#135 = ORIENTED_EDGE ( 'NONE', *, *, #200, .F. ) ;
#136 = ORIENTED_EDGE ( 'NONE', *, *, #204, .T. ) ;
#137 = ORIENTED_EDGE ( 'NONE', *, *, #196, .F. ) ;
#138 = ORIENTED_EDGE ( 'NONE', *, *, #195, .T. ) ;
#139 = ORIENTED_EDGE ( 'NONE', *, *, #191, .F. ) ;
#140 = ORIENTED_EDGE ( 'NONE', *, *, #184, .F. ) ;
#141 = ORIENTED_EDGE ( 'NONE', *, *, #190, .T. ) ;
#142 = ORIENTED_EDGE ( 'NONE', *, *, #188, .T. ) ;
#143 = ORIENTED_EDGE ( 'NONE', *, *, #195, .F. ) ;
#144 = ORIENTED_EDGE ( 'NONE', *, *, #193, .F. ) ;
#145 = ORIENTED_EDGE ( 'NONE', *, *, #194, .T. ) ;
#146 = ORIENTED_EDGE ( 'NONE', *, *, #200, .T. ) ;
#147 = ORIENTED_EDGE ( 'NONE', *, *, #188, .F. ) ;
#148 = ORIENTED_EDGE ( 'NONE', *, *, #201, .F. ) ;
#149 = APPLICATION_CONTEXT ( 'automotive_design' ) ;
#150 = APPLICATION_CONTEXT ( 'automotive_design' ) ;
#151 = ADVANCED_BREP_SHAPE_REPRESENTATION ( 'P125AH', ( #208, #156 ), #210 ) ;
#152 = UNCERTAINTY_MEASURE_WITH_UNIT (LENGTH_MEASURE( 1.000000000000000100E-005 ), #26, 'distance_accuracy_value', 'NONE');
#153 = UNCERTAINTY_MEASURE_WITH_UNIT (LENGTH_MEASURE( 1.000000000000000100E-005 ), #14, 'distance_accuracy_value', 'NONE');
#154 = UNCERTAINTY_MEASURE_WITH_UNIT (LENGTH_MEASURE( 1.000000000000000100E-005 ), #31, 'distance_accuracy_value', 'NONE');
#155 = LENGTH_MEASURE_WITH_UNIT ( LENGTH_MEASURE( 0.02539999999999999900 ), #32 );
#156 = AXIS2_PLACEMENT_3D ( 'NONE', #70, #69, #68 ) ;
#157 = PRESENTATION_LAYER_ASSIGNMENT (  '', '', ( #170 ) ) ;
#158 = VECTOR ( 'NONE', #43, 39.37007874015748100 ) ;
#159 = LENGTH_MEASURE_WITH_UNIT ( LENGTH_MEASURE( 0.02539999999999999900 ), #28 );
#160 = PRESENTATION_LAYER_ASSIGNMENT (  '', '', ( #163 ) ) ;
#161 = PRODUCT_DEFINITION_FORMATION_WITH_SPECIFIED_SOURCE ( 'ANY', '', #2, .NOT_KNOWN. ) ;
#162 = VECTOR ( 'NONE', #53, 39.37007874015748100 ) ;
#163 = STYLED_ITEM ( 'NONE', ( #33 ), #208 ) ;
#164 = VECTOR ( 'NONE', #74, 39.37007874015748100 ) ;
#165 = VECTOR ( 'NONE', #80, 39.37007874015748100 ) ;
#166 = LENGTH_MEASURE_WITH_UNIT ( LENGTH_MEASURE( 0.02539999999999999900 ), #12 );
#167 = AXIS2_PLACEMENT_3D ( 'NONE', #58, #57, #56 ) ;
#168 = AXIS2_PLACEMENT_3D ( 'NONE', #41, #40, #39 ) ;
#169 = VECTOR ( 'NONE', #71, 39.37007874015748100 ) ;
#170 = STYLED_ITEM ( 'NONE', ( #16 ), #151 ) ;
#171 = FACE_OUTER_BOUND ( 'NONE', #120, .T. ) ;
#172 = AXIS2_PLACEMENT_3D ( 'NONE', #48, #47, #46 ) ;
#173 = AXIS2_PLACEMENT_3D ( 'NONE', #62, #61, #60 ) ;
#174 = MECHANICAL_DESIGN_GEOMETRIC_PRESENTATION_REPRESENTATION (  '', ( #163 ), #209 ) ;
#175 = FACE_OUTER_BOUND ( 'NONE', #123, .T. ) ;
#176 = FACE_OUTER_BOUND ( 'NONE', #122, .T. ) ;
#177 = VECTOR ( 'NONE', #49, 39.37007874015748100 ) ;
#178 = VECTOR ( 'NONE', #77, 39.37007874015748100 ) ;
#179 = FACE_OUTER_BOUND ( 'NONE', #125, .T. ) ;
#180 = AXIS2_PLACEMENT_3D ( 'NONE', #66, #65, #64 ) ;
#181 = VECTOR ( 'NONE', #85, 39.37007874015748100 ) ;
#182 = VECTOR ( 'NONE', #67, 39.37007874015748100 ) ;
#183 = MECHANICAL_DESIGN_GEOMETRIC_PRESENTATION_REPRESENTATION (  '', ( #170 ), #211 ) ;
#184 = EDGE_CURVE ( 'NONE', #117, #118, #102, .T. ) ;
#185 = ADVANCED_FACE ( 'NONE', ( #8 ), #99, .F. ) ;
#186 = PRODUCT_DEFINITION ( 'UNKNOWN', '', #161, #207 ) ;
#187 = PRODUCT_RELATED_PRODUCT_CATEGORY ( 'part', '', ( #2 ) ) ;
#188 = EDGE_CURVE ( 'NONE', #115, #113, #95, .T. ) ;
#189 = COLOUR_RGB ( '',0.5686274509803921400, 0.5686274509803921400, 0.5882352941176470800 ) ;
#190 = EDGE_CURVE ( 'NONE', #116, #119, #90, .T. ) ;
#191 = EDGE_CURVE ( 'NONE', #118, #119, #87, .T. ) ;
#192 = EDGE_CURVE ( 'NONE', #112, #113, #84, .T. ) ;
#193 = EDGE_CURVE ( 'NONE', #115, #117, #81, .T. ) ;
#194 = EDGE_CURVE ( 'NONE', #113, #116, #79, .T. ) ;
#195 = EDGE_CURVE ( 'NONE', #117, #116, #75, .T. ) ;
#196 = EDGE_CURVE ( 'NONE', #118, #114, #72, .T. ) ;
#197 = ADVANCED_FACE ( 'NONE', ( #11 ), #91, .F. ) ;
#198 = ADVANCED_FACE ( 'NONE', ( #176 ), #63, .T. ) ;
#199 = ADVANCED_FACE ( 'NONE', ( #175 ), #59, .F. ) ;
#200 = EDGE_CURVE ( 'NONE', #114, #112, #55, .T. ) ;
#201 = EDGE_CURVE ( 'NONE', #114, #115, #51, .T. ) ;
#202 = COLOUR_RGB ( '',0.5686274509803921400, 0.5686274509803921400, 0.5882352941176470800 ) ;
#203 = ADVANCED_FACE ( 'NONE', ( #171 ), #52, .F. ) ;
#204 = EDGE_CURVE ( 'NONE', #119, #112, #45, .T. ) ;
#205 = ADVANCED_FACE ( 'NONE', ( #179 ), #42, .F. ) ;
#206 = PRODUCT_DEFINITION_SHAPE ( 'NONE', 'NONE',  #186 ) ;
#207 = PRODUCT_DEFINITION_CONTEXT ( 'detailed design', #150, 'design' ) ;
#208 = MANIFOLD_SOLID_BREP ( 'Boss-Extrude1', #9 ) ;
#209 =( GEOMETRIC_REPRESENTATION_CONTEXT ( 3 ) GLOBAL_UNCERTAINTY_ASSIGNED_CONTEXT ( ( #154 ) ) GLOBAL_UNIT_ASSIGNED_CONTEXT ( ( #31, #30, #27 ) ) REPRESENTATION_CONTEXT ( 'NONE', 'WORKASPACE' ) );
#210 =( GEOMETRIC_REPRESENTATION_CONTEXT ( 3 ) GLOBAL_UNCERTAINTY_ASSIGNED_CONTEXT ( ( #152 ) ) GLOBAL_UNIT_ASSIGNED_CONTEXT ( ( #26, #24, #23 ) ) REPRESENTATION_CONTEXT ( 'NONE', 'WORKASPACE' ) );
#211 =( GEOMETRIC_REPRESENTATION_CONTEXT ( 3 ) GLOBAL_UNCERTAINTY_ASSIGNED_CONTEXT ( ( #153 ) ) GLOBAL_UNIT_ASSIGNED_CONTEXT ( ( #14, #19, #94 ) ) REPRESENTATION_CONTEXT ( 'NONE', 'WORKASPACE' ) );
ENDSEC;
END-ISO-10303-21;
