ISO-10303-21;
HEADER;
FILE_DESCRIPTION (( 'STEP AP214' ),
    '1' );
FILE_NAME ('P125BD.step',
    '2012-04-20T21:00:38',
    ( '' ),
    ( '' ),
    'SwSTEP 2.0',
    'SolidWorks 2012',
    '' );
FILE_SCHEMA (( 'AUTOMOTIVE_DESIGN' ));
ENDSEC;

DATA;
#1 = PRODUCT ( 'P125BD', 'P125BD', '', ( #43 ) ) ;
#2 = DIMENSIONAL_EXPONENTS ( 1.000000000000000000, 0.0000000000000000000, 0.0000000000000000000, 0.0000000000000000000, 0.0000000000000000000, 0.0000000000000000000, 0.0000000000000000000 ) ;
#3 = DIMENSIONAL_EXPONENTS ( 1.000000000000000000, 0.0000000000000000000, 0.0000000000000000000, 0.0000000000000000000, 0.0000000000000000000, 0.0000000000000000000, 0.0000000000000000000 ) ;
#4 = DIMENSIONAL_EXPONENTS ( 1.000000000000000000, 0.0000000000000000000, 0.0000000000000000000, 0.0000000000000000000, 0.0000000000000000000, 0.0000000000000000000, 0.0000000000000000000 ) ;
#5 =( GEOMETRIC_REPRESENTATION_CONTEXT ( 3 ) GLOBAL_UNCERTAINTY_ASSIGNED_CONTEXT ( ( #17 ) ) GLOBAL_UNIT_ASSIGNED_CONTEXT ( ( #111, #110, #109 ) ) REPRESENTATION_CONTEXT ( 'NONE', 'WORKASPACE' ) );
#6 =( GEOMETRIC_REPRESENTATION_CONTEXT ( 3 ) GLOBAL_UNCERTAINTY_ASSIGNED_CONTEXT ( ( #19 ) ) GLOBAL_UNIT_ASSIGNED_CONTEXT ( ( #47, #46, #42 ) ) REPRESENTATION_CONTEXT ( 'NONE', 'WORKASPACE' ) );
#7 =( GEOMETRIC_REPRESENTATION_CONTEXT ( 3 ) GLOBAL_UNCERTAINTY_ASSIGNED_CONTEXT ( ( #16 ) ) GLOBAL_UNIT_ASSIGNED_CONTEXT ( ( #26, #27, #22 ) ) REPRESENTATION_CONTEXT ( 'NONE', 'WORKASPACE' ) );
#8 = STYLED_ITEM ( 'NONE', ( #113 ), #179 ) ;
#9 = CLOSED_SHELL ( 'NONE', ( #209, #190, #196, #203, #200, #207 ) ) ;
#10 = PRESENTATION_LAYER_ASSIGNMENT (  '', '', ( #8 ) ) ;
#11 = LENGTH_MEASURE_WITH_UNIT ( LENGTH_MEASURE( 0.02539999999999999900 ), #112 );
#12 = VECTOR ( 'NONE', #106, 39.37007874015748100 ) ;
#13 = FACE_OUTER_BOUND ( 'NONE', #153, .T. ) ;
#14 = AXIS2_PLACEMENT_3D ( 'NONE', #101, #100, #99 ) ;
#15 = MECHANICAL_DESIGN_GEOMETRIC_PRESENTATION_REPRESENTATION (  '', ( #8 ), #5 ) ;
#16 = UNCERTAINTY_MEASURE_WITH_UNIT (LENGTH_MEASURE( 1.000000000000000100E-005 ), #26, 'distance_accuracy_value', 'NONE');
#17 = UNCERTAINTY_MEASURE_WITH_UNIT (LENGTH_MEASURE( 1.000000000000000100E-005 ), #111, 'distance_accuracy_value', 'NONE');
#18 = ADVANCED_BREP_SHAPE_REPRESENTATION ( 'P125BD', ( #179, #184 ), #6 ) ;
#19 = UNCERTAINTY_MEASURE_WITH_UNIT (LENGTH_MEASURE( 1.000000000000000100E-005 ), #47, 'distance_accuracy_value', 'NONE');
#20 = CARTESIAN_POINT ( 'NONE',  ( 0.0000000000000000000, 0.0000000000000000000, 0.0000000000000000000 ) ) ;
#21 = APPLICATION_PROTOCOL_DEFINITION ( 'draft international standard', 'automotive_design', 1998, #210 ) ;
#22 =( NAMED_UNIT ( * ) SI_UNIT ( $, .STERADIAN. ) SOLID_ANGLE_UNIT ( ) );
#23 = EDGE_LOOP ( 'NONE', ( #127, #143, #128, #141 ) ) ;
#24 = DIRECTION ( 'NONE',  ( 1.000000000000000000, 0.0000000000000000000, 0.0000000000000000000 ) ) ;
#25 = DIRECTION ( 'NONE',  ( 0.0000000000000000000, 0.0000000000000000000, 1.000000000000000000 ) ) ;
#26 =( CONVERSION_BASED_UNIT ( 'INCH', #183 ) LENGTH_UNIT ( ) NAMED_UNIT ( #2 ) );
#27 =( NAMED_UNIT ( * ) PLANE_ANGLE_UNIT ( ) SI_UNIT ( $, .RADIAN. ) );
#28 =( LENGTH_UNIT ( ) NAMED_UNIT ( * ) SI_UNIT ( $, .METRE. ) );
#29 = ORIENTED_EDGE ( 'NONE', *, *, #195, .F. ) ;
#30 = SHAPE_DEFINITION_REPRESENTATION ( #178, #18 ) ;
#31 = ORIENTED_EDGE ( 'NONE', *, *, #197, .F. ) ;
#32 = ORIENTED_EDGE ( 'NONE', *, *, #194, .T. ) ;
#33 = SURFACE_STYLE_USAGE ( .BOTH. , #40 ) ;
#34 = ORIENTED_EDGE ( 'NONE', *, *, #204, .T. ) ;
#35 = ORIENTED_EDGE ( 'NONE', *, *, #208, .F. ) ;
#36 = FILL_AREA_STYLE ('',( #37 ) ) ;
#37 = FILL_AREA_STYLE_COLOUR ( '', #193 ) ;
#38 = SURFACE_STYLE_FILL_AREA ( #36 ) ;
#39 = PRESENTATION_STYLE_ASSIGNMENT (( #33 ) ) ;
#40 = SURFACE_SIDE_STYLE ('',( #38 ) ) ;
#41 = APPLICATION_PROTOCOL_DEFINITION ( 'draft international standard', 'automotive_design', 1998, #211 ) ;
#42 =( NAMED_UNIT ( * ) SI_UNIT ( $, .STERADIAN. ) SOLID_ANGLE_UNIT ( ) );
#43 = PRODUCT_CONTEXT ( 'NONE', #211, 'mechanical' ) ;
#44 = ORIENTED_EDGE ( 'NONE', *, *, #202, .F. ) ;
#45 = EDGE_LOOP ( 'NONE', ( #140, #139, #138, #142 ) ) ;
#46 =( NAMED_UNIT ( * ) PLANE_ANGLE_UNIT ( ) SI_UNIT ( $, .RADIAN. ) );
#47 =( CONVERSION_BASED_UNIT ( 'INCH', #165 ) LENGTH_UNIT ( ) NAMED_UNIT ( #4 ) );
#48 =( LENGTH_UNIT ( ) NAMED_UNIT ( * ) SI_UNIT ( $, .METRE. ) );
#49 = DIRECTION ( 'NONE',  ( -1.000000000000000000, 0.0000000000000000000, 6.123233995736766000E-017 ) ) ;
#50 = DIRECTION ( 'NONE',  ( -6.123233995736766000E-017, 0.0000000000000000000, -1.000000000000000000 ) ) ;
#51 = CARTESIAN_POINT ( 'NONE',  ( 0.2500000000000000000, 0.1250000000000000000, -1.530808498934191500E-017 ) ) ;
#52 = PLANE ( 'NONE',  #187 ) ;
#53 = DIRECTION ( 'NONE',  ( -1.365923996832131600E-016, -0.0000000000000000000, -1.000000000000000000 ) ) ;
#54 = CARTESIAN_POINT ( 'NONE',  ( 0.2499999999999999200, 0.1250000000000000000, -0.5000000000000000000 ) ) ;
#55 = LINE ( 'NONE', #54, #158 ) ;
#56 = DIRECTION ( 'NONE',  ( 0.0000000000000000000, 0.0000000000000000000, -1.000000000000000000 ) ) ;
#57 = DIRECTION ( 'NONE',  ( 0.0000000000000000000, -1.000000000000000000, -0.0000000000000000000 ) ) ;
#58 = CARTESIAN_POINT ( 'NONE',  ( 0.0000000000000000000, 0.0000000000000000000, 0.0000000000000000000 ) ) ;
#59 = DIRECTION ( 'NONE',  ( 1.000000000000000000, -0.0000000000000000000, -6.123233995736766000E-017 ) ) ;
#60 = CARTESIAN_POINT ( 'NONE',  ( 0.2500000000000000000, 0.0000000000000000000, -1.530808498934191500E-017 ) ) ;
#61 = LINE ( 'NONE', #60, #176 ) ;
#62 = PLANE ( 'NONE',  #160 ) ;
#63 = DIRECTION ( 'NONE',  ( -1.365923996832131600E-016, -0.0000000000000000000, -1.000000000000000000 ) ) ;
#64 = CARTESIAN_POINT ( 'NONE',  ( 0.2499999999999999200, 0.0000000000000000000, -0.5000000000000000000 ) ) ;
#65 = LINE ( 'NONE', #64, #163 ) ;
#66 = DIRECTION ( 'NONE',  ( 0.0000000000000000000, 0.0000000000000000000, -1.000000000000000000 ) ) ;
#67 = DIRECTION ( 'NONE',  ( 1.000000000000000000, -0.0000000000000000000, 0.0000000000000000000 ) ) ;
#68 = CARTESIAN_POINT ( 'NONE',  ( 0.0000000000000000000, 0.1250000000000000000, 0.0000000000000000000 ) ) ;
#69 = PLANE ( 'NONE',  #161 ) ;
#70 = DIRECTION ( 'NONE',  ( -0.0000000000000000000, -1.000000000000000000, -0.0000000000000000000 ) ) ;
#71 = CARTESIAN_POINT ( 'NONE',  ( 0.2499999999999999200, 0.1250000000000000000, -0.5000000000000000000 ) ) ;
#72 = LINE ( 'NONE', #71, #164 ) ;
#73 = DIRECTION ( 'NONE',  ( 0.0000000000000000000, 0.0000000000000000000, -1.000000000000000000 ) ) ;
#74 = DIRECTION ( 'NONE',  ( 0.0000000000000000000, -1.000000000000000000, -0.0000000000000000000 ) ) ;
#75 = CARTESIAN_POINT ( 'NONE',  ( 0.0000000000000000000, 0.1250000000000000000, 0.0000000000000000000 ) ) ;
#76 = DIRECTION ( 'NONE',  ( -0.0000000000000000000, -0.0000000000000000000, 1.000000000000000000 ) ) ;
#77 = CARTESIAN_POINT ( 'NONE',  ( 0.0000000000000000000, 0.1250000000000000000, 0.0000000000000000000 ) ) ;
#78 = LINE ( 'NONE', #77, #167 ) ;
#79 = PLANE ( 'NONE',  #166 ) ;
#80 = DIRECTION ( 'NONE',  ( 1.000000000000000000, -0.0000000000000000000, -6.123233995736766000E-017 ) ) ;
#81 = CARTESIAN_POINT ( 'NONE',  ( 0.2500000000000000000, 0.1250000000000000000, -1.530808498934191500E-017 ) ) ;
#82 = LINE ( 'NONE', #81, #169 ) ;
#83 = DIRECTION ( 'NONE',  ( 1.000000000000000000, 0.0000000000000000000, -0.0000000000000000000 ) ) ;
#84 = DIRECTION ( 'NONE',  ( 0.0000000000000000000, 0.0000000000000000000, 1.000000000000000000 ) ) ;
#85 = CARTESIAN_POINT ( 'NONE',  ( 0.0000000000000000000, 0.1250000000000000000, -0.5000000000000000000 ) ) ;
#86 = DIRECTION ( 'NONE',  ( -0.0000000000000000000, -1.000000000000000000, -0.0000000000000000000 ) ) ;
#87 = CARTESIAN_POINT ( 'NONE',  ( 0.2500000000000000000, 0.1250000000000000000, -1.530808498934191500E-017 ) ) ;
#88 = LINE ( 'NONE', #87, #171 ) ;
#89 = DIRECTION ( 'NONE',  ( -0.0000000000000000000, -1.000000000000000000, -0.0000000000000000000 ) ) ;
#90 = CARTESIAN_POINT ( 'NONE',  ( 0.0000000000000000000, 0.1250000000000000000, 0.0000000000000000000 ) ) ;
#91 = LINE ( 'NONE', #90, #173 ) ;
#92 = DIRECTION ( 'NONE',  ( -0.0000000000000000000, -1.000000000000000000, -0.0000000000000000000 ) ) ;
#93 = CARTESIAN_POINT ( 'NONE',  ( 0.0000000000000000000, 0.1250000000000000000, -0.5000000000000000000 ) ) ;
#94 = LINE ( 'NONE', #93, #175 ) ;
#95 = PLANE ( 'NONE',  #174 ) ;
#96 = DIRECTION ( 'NONE',  ( -1.000000000000000000, -0.0000000000000000000, -0.0000000000000000000 ) ) ;
#97 = CARTESIAN_POINT ( 'NONE',  ( 0.0000000000000000000, 0.1250000000000000000, -0.5000000000000000000 ) ) ;
#98 = LINE ( 'NONE', #97, #177 ) ;
#99 = DIRECTION ( 'NONE',  ( 1.365923996832131600E-016, 0.0000000000000000000, 1.000000000000000000 ) ) ;
#100 = DIRECTION ( 'NONE',  ( -1.000000000000000000, 0.0000000000000000000, 1.365923996832131600E-016 ) ) ;
#101 = CARTESIAN_POINT ( 'NONE',  ( 0.2499999999999999200, 0.1250000000000000000, -0.5000000000000000000 ) ) ;
#102 = DIRECTION ( 'NONE',  ( -0.0000000000000000000, -0.0000000000000000000, 1.000000000000000000 ) ) ;
#103 = CARTESIAN_POINT ( 'NONE',  ( 0.0000000000000000000, 0.0000000000000000000, 0.0000000000000000000 ) ) ;
#104 = LINE ( 'NONE', #103, #157 ) ;
#105 = PLANE ( 'NONE',  #14 ) ;
#106 = DIRECTION ( 'NONE',  ( -1.000000000000000000, -0.0000000000000000000, -0.0000000000000000000 ) ) ;
#107 = CARTESIAN_POINT ( 'NONE',  ( 0.0000000000000000000, 0.0000000000000000000, -0.5000000000000000000 ) ) ;
#108 = LINE ( 'NONE', #107, #12 ) ;
#109 =( NAMED_UNIT ( * ) SI_UNIT ( $, .STERADIAN. ) SOLID_ANGLE_UNIT ( ) );
#110 =( NAMED_UNIT ( * ) PLANE_ANGLE_UNIT ( ) SI_UNIT ( $, .RADIAN. ) );
#111 =( CONVERSION_BASED_UNIT ( 'INCH', #11 ) LENGTH_UNIT ( ) NAMED_UNIT ( #3 ) );
#112 =( LENGTH_UNIT ( ) NAMED_UNIT ( * ) SI_UNIT ( $, .METRE. ) );
#113 = PRESENTATION_STYLE_ASSIGNMENT (( #114 ) ) ;
#114 = SURFACE_STYLE_USAGE ( .BOTH. , #115 ) ;
#115 = SURFACE_SIDE_STYLE ('',( #116 ) ) ;
#116 = SURFACE_STYLE_FILL_AREA ( #117 ) ;
#117 = FILL_AREA_STYLE ('',( #118 ) ) ;
#118 = FILL_AREA_STYLE_COLOUR ( '', #205 ) ;
#119 = CARTESIAN_POINT ( 'NONE',  ( 0.2499999999999999200, 0.0000000000000000000, -0.5000000000000000000 ) ) ;
#120 = CARTESIAN_POINT ( 'NONE',  ( 0.0000000000000000000, 0.0000000000000000000, -0.5000000000000000000 ) ) ;
#121 = CARTESIAN_POINT ( 'NONE',  ( 0.0000000000000000000, 0.1250000000000000000, -0.5000000000000000000 ) ) ;
#122 = CARTESIAN_POINT ( 'NONE',  ( 0.2499999999999999200, 0.1250000000000000000, -0.5000000000000000000 ) ) ;
#123 = CARTESIAN_POINT ( 'NONE',  ( 0.2500000000000000000, 0.1250000000000000000, -1.530808498934191500E-017 ) ) ;
#124 = CARTESIAN_POINT ( 'NONE',  ( 0.2500000000000000000, 0.0000000000000000000, -1.530808498934191500E-017 ) ) ;
#125 = CARTESIAN_POINT ( 'NONE',  ( 0.0000000000000000000, 0.1250000000000000000, 0.0000000000000000000 ) ) ;
#126 = CARTESIAN_POINT ( 'NONE',  ( 0.0000000000000000000, 0.0000000000000000000, 0.0000000000000000000 ) ) ;
#127 = ORIENTED_EDGE ( 'NONE', *, *, #189, .T. ) ;
#128 = ORIENTED_EDGE ( 'NONE', *, *, #199, .F. ) ;
#129 = ORIENTED_EDGE ( 'NONE', *, *, #202, .T. ) ;
#130 = ORIENTED_EDGE ( 'NONE', *, *, #192, .F. ) ;
#131 = ORIENTED_EDGE ( 'NONE', *, *, #191, .F. ) ;
#132 = ORIENTED_EDGE ( 'NONE', *, *, #188, .T. ) ;
#133 = ORIENTED_EDGE ( 'NONE', *, *, #195, .T. ) ;
#134 = ORIENTED_EDGE ( 'NONE', *, *, #188, .F. ) ;
#135 = ORIENTED_EDGE ( 'NONE', *, *, #189, .F. ) ;
#136 = ORIENTED_EDGE ( 'NONE', *, *, #206, .F. ) ;
#137 = ORIENTED_EDGE ( 'NONE', *, *, #204, .F. ) ;
#138 = ORIENTED_EDGE ( 'NONE', *, *, #191, .T. ) ;
#139 = ORIENTED_EDGE ( 'NONE', *, *, #208, .T. ) ;
#140 = ORIENTED_EDGE ( 'NONE', *, *, #197, .T. ) ;
#141 = ORIENTED_EDGE ( 'NONE', *, *, #192, .T. ) ;
#142 = ORIENTED_EDGE ( 'NONE', *, *, #199, .T. ) ;
#143 = ORIENTED_EDGE ( 'NONE', *, *, #194, .F. ) ;
#144 = ORIENTED_EDGE ( 'NONE', *, *, #206, .T. ) ;
#145 = VERTEX_POINT ( 'NONE', #126 ) ;
#146 = VERTEX_POINT ( 'NONE', #125 ) ;
#147 = VERTEX_POINT ( 'NONE', #124 ) ;
#148 = VERTEX_POINT ( 'NONE', #123 ) ;
#149 = VERTEX_POINT ( 'NONE', #122 ) ;
#150 = VERTEX_POINT ( 'NONE', #121 ) ;
#151 = VERTEX_POINT ( 'NONE', #120 ) ;
#152 = VERTEX_POINT ( 'NONE', #119 ) ;
#153 = EDGE_LOOP ( 'NONE', ( #34, #44, #35, #133 ) ) ;
#154 = EDGE_LOOP ( 'NONE', ( #132, #130, #131, #129 ) ) ;
#155 = EDGE_LOOP ( 'NONE', ( #136, #135, #134, #137 ) ) ;
#156 = EDGE_LOOP ( 'NONE', ( #144, #29, #31, #32 ) ) ;
#157 = VECTOR ( 'NONE', #102, 39.37007874015748100 ) ;
#158 = VECTOR ( 'NONE', #53, 39.37007874015748100 ) ;
#159 = FACE_OUTER_BOUND ( 'NONE', #154, .T. ) ;
#160 = AXIS2_PLACEMENT_3D ( 'NONE', #58, #57, #56 ) ;
#161 = AXIS2_PLACEMENT_3D ( 'NONE', #68, #67, #66 ) ;
#162 = FACE_OUTER_BOUND ( 'NONE', #156, .T. ) ;
#163 = VECTOR ( 'NONE', #63, 39.37007874015748100 ) ;
#164 = VECTOR ( 'NONE', #70, 39.37007874015748100 ) ;
#165 = LENGTH_MEASURE_WITH_UNIT ( LENGTH_MEASURE( 0.02539999999999999900 ), #48 );
#166 = AXIS2_PLACEMENT_3D ( 'NONE', #75, #74, #73 ) ;
#167 = VECTOR ( 'NONE', #76, 39.37007874015748100 ) ;
#168 = FACE_OUTER_BOUND ( 'NONE', #23, .T. ) ;
#169 = VECTOR ( 'NONE', #80, 39.37007874015748100 ) ;
#170 = FACE_OUTER_BOUND ( 'NONE', #155, .T. ) ;
#171 = VECTOR ( 'NONE', #86, 39.37007874015748100 ) ;
#172 = FACE_OUTER_BOUND ( 'NONE', #45, .T. ) ;
#173 = VECTOR ( 'NONE', #89, 39.37007874015748100 ) ;
#174 = AXIS2_PLACEMENT_3D ( 'NONE', #85, #84, #83 ) ;
#175 = VECTOR ( 'NONE', #92, 39.37007874015748100 ) ;
#176 = VECTOR ( 'NONE', #59, 39.37007874015748100 ) ;
#177 = VECTOR ( 'NONE', #96, 39.37007874015748100 ) ;
#178 = PRODUCT_DEFINITION_SHAPE ( 'NONE', 'NONE',  #198 ) ;
#179 = MANIFOLD_SOLID_BREP ( 'Boss-Extrude1', #9 ) ;
#180 = PRODUCT_DEFINITION_CONTEXT ( 'detailed design', #210, 'design' ) ;
#181 = PRESENTATION_LAYER_ASSIGNMENT (  '', '', ( #182 ) ) ;
#182 = STYLED_ITEM ( 'NONE', ( #39 ), #18 ) ;
#183 = LENGTH_MEASURE_WITH_UNIT ( LENGTH_MEASURE( 0.02539999999999999900 ), #28 );
#184 = AXIS2_PLACEMENT_3D ( 'NONE', #20, #25, #24 ) ;
#185 = PRODUCT_DEFINITION_FORMATION_WITH_SPECIFIED_SOURCE ( 'ANY', '', #1, .NOT_KNOWN. ) ;
#186 = MECHANICAL_DESIGN_GEOMETRIC_PRESENTATION_REPRESENTATION (  '', ( #182 ), #7 ) ;
#187 = AXIS2_PLACEMENT_3D ( 'NONE', #51, #50, #49 ) ;
#188 = EDGE_CURVE ( 'NONE', #152, #151, #108, .T. ) ;
#189 = EDGE_CURVE ( 'NONE', #151, #145, #104, .T. ) ;
#190 = ADVANCED_FACE ( 'NONE', ( #13 ), #105, .F. ) ;
#191 = EDGE_CURVE ( 'NONE', #149, #150, #98, .T. ) ;
#192 = EDGE_CURVE ( 'NONE', #150, #151, #94, .T. ) ;
#193 = COLOUR_RGB ( '',0.5686274509803921400, 0.5686274509803921400, 0.5882352941176470800 ) ;
#194 = EDGE_CURVE ( 'NONE', #146, #145, #91, .T. ) ;
#195 = EDGE_CURVE ( 'NONE', #148, #147, #88, .T. ) ;
#196 = ADVANCED_FACE ( 'NONE', ( #159 ), #95, .F. ) ;
#197 = EDGE_CURVE ( 'NONE', #146, #148, #82, .T. ) ;
#198 = PRODUCT_DEFINITION ( 'UNKNOWN', '', #185, #180 ) ;
#199 = EDGE_CURVE ( 'NONE', #150, #146, #78, .T. ) ;
#200 = ADVANCED_FACE ( 'NONE', ( #172 ), #79, .F. ) ;
#201 = PRODUCT_RELATED_PRODUCT_CATEGORY ( 'part', '', ( #1 ) ) ;
#202 = EDGE_CURVE ( 'NONE', #149, #152, #72, .T. ) ;
#203 = ADVANCED_FACE ( 'NONE', ( #168 ), #69, .F. ) ;
#204 = EDGE_CURVE ( 'NONE', #147, #152, #65, .T. ) ;
#205 = COLOUR_RGB ( '',0.5686274509803921400, 0.5686274509803921400, 0.5882352941176470800 ) ;
#206 = EDGE_CURVE ( 'NONE', #145, #147, #61, .T. ) ;
#207 = ADVANCED_FACE ( 'NONE', ( #170 ), #62, .T. ) ;
#208 = EDGE_CURVE ( 'NONE', #148, #149, #55, .T. ) ;
#209 = ADVANCED_FACE ( 'NONE', ( #162 ), #52, .F. ) ;
#210 = APPLICATION_CONTEXT ( 'automotive_design' ) ;
#211 = APPLICATION_CONTEXT ( 'automotive_design' ) ;
ENDSEC;
END-ISO-10303-21;
