ISO-10303-21;
HEADER;
FILE_DESCRIPTION (( 'STEP AP214' ),
    '1' );
FILE_NAME ('P125BH.step',
    '2012-04-20T21:00:41',
    ( '' ),
    ( '' ),
    'SwSTEP 2.0',
    'SolidWorks 2012',
    '' );
FILE_SCHEMA (( 'AUTOMOTIVE_DESIGN' ));
ENDSEC;

DATA;
#1 = APPLICATION_CONTEXT ( 'automotive_design' ) ;
#2 = APPLICATION_CONTEXT ( 'automotive_design' ) ;
#3 = DIMENSIONAL_EXPONENTS ( 1.000000000000000000, 0.0000000000000000000, 0.0000000000000000000, 0.0000000000000000000, 0.0000000000000000000, 0.0000000000000000000, 0.0000000000000000000 ) ;
#4 = PRODUCT ( 'P125BH', 'P125BH', '', ( #34 ) ) ;
#5 = DIMENSIONAL_EXPONENTS ( 1.000000000000000000, 0.0000000000000000000, 0.0000000000000000000, 0.0000000000000000000, 0.0000000000000000000, 0.0000000000000000000, 0.0000000000000000000 ) ;
#6 = DIMENSIONAL_EXPONENTS ( 1.000000000000000000, 0.0000000000000000000, 0.0000000000000000000, 0.0000000000000000000, 0.0000000000000000000, 0.0000000000000000000, 0.0000000000000000000 ) ;
#7 = ADVANCED_BREP_SHAPE_REPRESENTATION ( 'P125BH', ( #188, #168 ), #21 ) ;
#8 = UNCERTAINTY_MEASURE_WITH_UNIT (LENGTH_MEASURE( 1.000000000000000100E-005 ), #27, 'distance_accuracy_value', 'NONE');
#9 = UNCERTAINTY_MEASURE_WITH_UNIT (LENGTH_MEASURE( 1.000000000000000100E-005 ), #38, 'distance_accuracy_value', 'NONE');
#10 = UNCERTAINTY_MEASURE_WITH_UNIT (LENGTH_MEASURE( 1.000000000000000100E-005 ), #103, 'distance_accuracy_value', 'NONE');
#11 = STYLED_ITEM ( 'NONE', ( #109 ), #188 ) ;
#12 = CLOSED_SHELL ( 'NONE', ( #211, #193, #198, #210, #194, #196 ) ) ;
#13 = VECTOR ( 'NONE', #94, 39.37007874015748100 ) ;
#14 = VECTOR ( 'NONE', #98, 39.37007874015748100 ) ;
#15 = FACE_OUTER_BOUND ( 'NONE', #129, .T. ) ;
#16 = LENGTH_MEASURE_WITH_UNIT ( LENGTH_MEASURE( 0.02539999999999999900 ), #106 );
#17 = MECHANICAL_DESIGN_GEOMETRIC_PRESENTATION_REPRESENTATION (  '', ( #11 ), #20 ) ;
#18 = AXIS2_PLACEMENT_3D ( 'NONE', #93, #92, #91 ) ;
#19 = PRESENTATION_LAYER_ASSIGNMENT (  '', '', ( #11 ) ) ;
#20 =( GEOMETRIC_REPRESENTATION_CONTEXT ( 3 ) GLOBAL_UNCERTAINTY_ASSIGNED_CONTEXT ( ( #10 ) ) GLOBAL_UNIT_ASSIGNED_CONTEXT ( ( #103, #102, #101 ) ) REPRESENTATION_CONTEXT ( 'NONE', 'WORKASPACE' ) );
#21 =( GEOMETRIC_REPRESENTATION_CONTEXT ( 3 ) GLOBAL_UNCERTAINTY_ASSIGNED_CONTEXT ( ( #9 ) ) GLOBAL_UNIT_ASSIGNED_CONTEXT ( ( #38, #36, #35 ) ) REPRESENTATION_CONTEXT ( 'NONE', 'WORKASPACE' ) );
#22 =( GEOMETRIC_REPRESENTATION_CONTEXT ( 3 ) GLOBAL_UNCERTAINTY_ASSIGNED_CONTEXT ( ( #8 ) ) GLOBAL_UNIT_ASSIGNED_CONTEXT ( ( #27, #23, #25 ) ) REPRESENTATION_CONTEXT ( 'NONE', 'WORKASPACE' ) );
#23 =( NAMED_UNIT ( * ) PLANE_ANGLE_UNIT ( ) SI_UNIT ( $, .RADIAN. ) );
#24 = SURFACE_SIDE_STYLE ('',( #30 ) ) ;
#25 =( NAMED_UNIT ( * ) SI_UNIT ( $, .STERADIAN. ) SOLID_ANGLE_UNIT ( ) );
#26 =( LENGTH_UNIT ( ) NAMED_UNIT ( * ) SI_UNIT ( $, .METRE. ) );
#27 =( CONVERSION_BASED_UNIT ( 'INCH', #167 ) LENGTH_UNIT ( ) NAMED_UNIT ( #3 ) );
#28 = SURFACE_STYLE_USAGE ( .BOTH. , #24 ) ;
#29 = FILL_AREA_STYLE ('',( #37 ) ) ;
#30 = SURFACE_STYLE_FILL_AREA ( #29 ) ;
#31 = PRESENTATION_STYLE_ASSIGNMENT (( #28 ) ) ;
#32 = APPLICATION_PROTOCOL_DEFINITION ( 'draft international standard', 'automotive_design', 1998, #1 ) ;
#33 = SHAPE_DEFINITION_REPRESENTATION ( #187, #7 ) ;
#34 = PRODUCT_CONTEXT ( 'NONE', #1, 'mechanical' ) ;
#35 =( NAMED_UNIT ( * ) SI_UNIT ( $, .STERADIAN. ) SOLID_ANGLE_UNIT ( ) );
#36 =( NAMED_UNIT ( * ) PLANE_ANGLE_UNIT ( ) SI_UNIT ( $, .RADIAN. ) );
#37 = FILL_AREA_STYLE_COLOUR ( '', #209 ) ;
#38 =( CONVERSION_BASED_UNIT ( 'INCH', #185 ) LENGTH_UNIT ( ) NAMED_UNIT ( #5 ) );
#39 = DIRECTION ( 'NONE',  ( -1.000000000000000000, 0.0000000000000000000, 6.123233995736766000E-017 ) ) ;
#40 = DIRECTION ( 'NONE',  ( -6.123233995736766000E-017, 0.0000000000000000000, -1.000000000000000000 ) ) ;
#41 = CARTESIAN_POINT ( 'NONE',  ( 0.2500000000000000000, 0.1250000000000000000, -1.530808498934191500E-017 ) ) ;
#42 = CARTESIAN_POINT ( 'NONE',  ( 0.0000000000000000000, 0.0000000000000000000, 0.0000000000000000000 ) ) ;
#43 =( LENGTH_UNIT ( ) NAMED_UNIT ( * ) SI_UNIT ( $, .METRE. ) );
#44 = DIRECTION ( 'NONE',  ( 1.000000000000000000, -0.0000000000000000000, 0.0000000000000000000 ) ) ;
#45 = CARTESIAN_POINT ( 'NONE',  ( 0.0000000000000000000, 0.0000000000000000000, -1.000000000000000000 ) ) ;
#46 = PLANE ( 'NONE',  #183 ) ;
#47 = DIRECTION ( 'NONE',  ( 0.0000000000000000000, 0.0000000000000000000, -1.000000000000000000 ) ) ;
#48 = CARTESIAN_POINT ( 'NONE',  ( 0.2499999999999998600, 0.1250000000000000000, -1.000000000000000000 ) ) ;
#49 = CARTESIAN_POINT ( 'NONE',  ( 0.0000000000000000000, 0.1250000000000000000, 0.0000000000000000000 ) ) ;
#50 = DIRECTION ( 'NONE',  ( -1.000000000000000000, -0.0000000000000000000, -0.0000000000000000000 ) ) ;
#51 = LINE ( 'NONE', #48, #181 ) ;
#52 = LINE ( 'NONE', #45, #182 ) ;
#53 = DIRECTION ( 'NONE',  ( -1.365923996832131600E-016, -0.0000000000000000000, -1.000000000000000000 ) ) ;
#54 = DIRECTION ( 'NONE',  ( -0.0000000000000000000, -1.000000000000000000, -0.0000000000000000000 ) ) ;
#55 = CARTESIAN_POINT ( 'NONE',  ( 0.2499999999999998600, 0.1250000000000000000, -1.000000000000000000 ) ) ;
#56 = LINE ( 'NONE', #55, #173 ) ;
#57 = DIRECTION ( 'NONE',  ( -0.0000000000000000000, -1.000000000000000000, -0.0000000000000000000 ) ) ;
#58 = CARTESIAN_POINT ( 'NONE',  ( 0.0000000000000000000, 0.1250000000000000000, 0.0000000000000000000 ) ) ;
#59 = LINE ( 'NONE', #58, #160 ) ;
#60 = DIRECTION ( 'NONE',  ( 1.000000000000000000, -0.0000000000000000000, -6.123233995736766000E-017 ) ) ;
#61 = CARTESIAN_POINT ( 'NONE',  ( 0.2500000000000000000, 0.1250000000000000000, -1.530808498934191500E-017 ) ) ;
#62 = LINE ( 'NONE', #61, #166 ) ;
#63 = DIRECTION ( 'NONE',  ( -0.0000000000000000000, -1.000000000000000000, -0.0000000000000000000 ) ) ;
#64 = CARTESIAN_POINT ( 'NONE',  ( 0.0000000000000000000, 0.1250000000000000000, -1.000000000000000000 ) ) ;
#65 = LINE ( 'NONE', #64, #163 ) ;
#66 = DIRECTION ( 'NONE',  ( -0.0000000000000000000, -1.000000000000000000, -0.0000000000000000000 ) ) ;
#67 = CARTESIAN_POINT ( 'NONE',  ( 0.2500000000000000000, 0.1250000000000000000, -1.530808498934191500E-017 ) ) ;
#68 = LINE ( 'NONE', #67, #161 ) ;
#69 = PLANE ( 'NONE',  #164 ) ;
#70 = DIRECTION ( 'NONE',  ( -0.0000000000000000000, -0.0000000000000000000, 1.000000000000000000 ) ) ;
#71 = CARTESIAN_POINT ( 'NONE',  ( 0.0000000000000000000, 0.1250000000000000000, 0.0000000000000000000 ) ) ;
#72 = LINE ( 'NONE', #71, #169 ) ;
#73 = DIRECTION ( 'NONE',  ( 1.000000000000000000, 0.0000000000000000000, -0.0000000000000000000 ) ) ;
#74 = DIRECTION ( 'NONE',  ( 0.0000000000000000000, 0.0000000000000000000, 1.000000000000000000 ) ) ;
#75 = CARTESIAN_POINT ( 'NONE',  ( 0.0000000000000000000, 0.1250000000000000000, -1.000000000000000000 ) ) ;
#76 = PLANE ( 'NONE',  #175 ) ;
#77 = DIRECTION ( 'NONE',  ( -1.000000000000000000, -0.0000000000000000000, -0.0000000000000000000 ) ) ;
#78 = CARTESIAN_POINT ( 'NONE',  ( 0.0000000000000000000, 0.1250000000000000000, -1.000000000000000000 ) ) ;
#79 = LINE ( 'NONE', #78, #174 ) ;
#80 = DIRECTION ( 'NONE',  ( 0.0000000000000000000, 0.0000000000000000000, -1.000000000000000000 ) ) ;
#81 = DIRECTION ( 'NONE',  ( 0.0000000000000000000, -1.000000000000000000, -0.0000000000000000000 ) ) ;
#82 = CARTESIAN_POINT ( 'NONE',  ( 0.0000000000000000000, 0.0000000000000000000, 0.0000000000000000000 ) ) ;
#83 = PLANE ( 'NONE',  #172 ) ;
#84 = DIRECTION ( 'NONE',  ( -0.0000000000000000000, -0.0000000000000000000, 1.000000000000000000 ) ) ;
#85 = CARTESIAN_POINT ( 'NONE',  ( 0.0000000000000000000, 0.0000000000000000000, 0.0000000000000000000 ) ) ;
#86 = LINE ( 'NONE', #85, #178 ) ;
#87 = DIRECTION ( 'NONE',  ( 0.0000000000000000000, 0.0000000000000000000, -1.000000000000000000 ) ) ;
#88 = DIRECTION ( 'NONE',  ( 0.0000000000000000000, -1.000000000000000000, -0.0000000000000000000 ) ) ;
#89 = CARTESIAN_POINT ( 'NONE',  ( 0.0000000000000000000, 0.1250000000000000000, 0.0000000000000000000 ) ) ;
#90 = PLANE ( 'NONE',  #180 ) ;
#91 = DIRECTION ( 'NONE',  ( 1.365923996832131600E-016, 0.0000000000000000000, 1.000000000000000000 ) ) ;
#92 = DIRECTION ( 'NONE',  ( -1.000000000000000000, 0.0000000000000000000, 1.365923996832131600E-016 ) ) ;
#93 = CARTESIAN_POINT ( 'NONE',  ( 0.2499999999999998600, 0.1250000000000000000, -1.000000000000000000 ) ) ;
#94 = DIRECTION ( 'NONE',  ( 1.000000000000000000, -0.0000000000000000000, -6.123233995736766000E-017 ) ) ;
#95 = CARTESIAN_POINT ( 'NONE',  ( 0.2500000000000000000, 0.0000000000000000000, -1.530808498934191500E-017 ) ) ;
#96 = LINE ( 'NONE', #95, #13 ) ;
#97 = PLANE ( 'NONE',  #18 ) ;
#98 = DIRECTION ( 'NONE',  ( -1.365923996832131600E-016, -0.0000000000000000000, -1.000000000000000000 ) ) ;
#99 = CARTESIAN_POINT ( 'NONE',  ( 0.2499999999999998600, 0.0000000000000000000, -1.000000000000000000 ) ) ;
#100 = LINE ( 'NONE', #99, #14 ) ;
#101 =( NAMED_UNIT ( * ) SI_UNIT ( $, .STERADIAN. ) SOLID_ANGLE_UNIT ( ) );
#102 =( NAMED_UNIT ( * ) PLANE_ANGLE_UNIT ( ) SI_UNIT ( $, .RADIAN. ) );
#103 =( CONVERSION_BASED_UNIT ( 'INCH', #16 ) LENGTH_UNIT ( ) NAMED_UNIT ( #6 ) );
#104 = DIRECTION ( 'NONE',  ( 1.000000000000000000, 0.0000000000000000000, 0.0000000000000000000 ) ) ;
#105 = DIRECTION ( 'NONE',  ( 0.0000000000000000000, 0.0000000000000000000, 1.000000000000000000 ) ) ;
#106 =( LENGTH_UNIT ( ) NAMED_UNIT ( * ) SI_UNIT ( $, .METRE. ) );
#107 = SURFACE_SIDE_STYLE ('',( #111 ) ) ;
#108 = SURFACE_STYLE_USAGE ( .BOTH. , #107 ) ;
#109 = PRESENTATION_STYLE_ASSIGNMENT (( #108 ) ) ;
#110 = FILL_AREA_STYLE_COLOUR ( '', #208 ) ;
#111 = SURFACE_STYLE_FILL_AREA ( #112 ) ;
#112 = FILL_AREA_STYLE ('',( #110 ) ) ;
#113 = CARTESIAN_POINT ( 'NONE',  ( 0.0000000000000000000, 0.0000000000000000000, 0.0000000000000000000 ) ) ;
#114 = CARTESIAN_POINT ( 'NONE',  ( 0.2500000000000000000, 0.1250000000000000000, -1.530808498934191500E-017 ) ) ;
#115 = CARTESIAN_POINT ( 'NONE',  ( 0.2500000000000000000, 0.0000000000000000000, -1.530808498934191500E-017 ) ) ;
#116 = CARTESIAN_POINT ( 'NONE',  ( 0.0000000000000000000, 0.0000000000000000000, -1.000000000000000000 ) ) ;
#117 = CARTESIAN_POINT ( 'NONE',  ( 0.2499999999999998600, 0.1250000000000000000, -1.000000000000000000 ) ) ;
#118 = CARTESIAN_POINT ( 'NONE',  ( 0.0000000000000000000, 0.1250000000000000000, -1.000000000000000000 ) ) ;
#119 = CARTESIAN_POINT ( 'NONE',  ( 0.2499999999999998600, 0.0000000000000000000, -1.000000000000000000 ) ) ;
#120 = CARTESIAN_POINT ( 'NONE',  ( 0.0000000000000000000, 0.1250000000000000000, 0.0000000000000000000 ) ) ;
#121 = VERTEX_POINT ( 'NONE', #120 ) ;
#122 = VERTEX_POINT ( 'NONE', #119 ) ;
#123 = VERTEX_POINT ( 'NONE', #118 ) ;
#124 = VERTEX_POINT ( 'NONE', #117 ) ;
#125 = VERTEX_POINT ( 'NONE', #116 ) ;
#126 = VERTEX_POINT ( 'NONE', #113 ) ;
#127 = VERTEX_POINT ( 'NONE', #114 ) ;
#128 = VERTEX_POINT ( 'NONE', #115 ) ;
#129 = EDGE_LOOP ( 'NONE', ( #144, #142, #143, #141 ) ) ;
#130 = EDGE_LOOP ( 'NONE', ( #150, #149, #148, #151 ) ) ;
#131 = EDGE_LOOP ( 'NONE', ( #140, #138, #139, #137 ) ) ;
#132 = EDGE_LOOP ( 'NONE', ( #158, #146, #147, #145 ) ) ;
#133 = EDGE_LOOP ( 'NONE', ( #135, #157, #136, #155 ) ) ;
#134 = EDGE_LOOP ( 'NONE', ( #154, #153, #152, #156 ) ) ;
#135 = ORIENTED_EDGE ( 'NONE', *, *, #195, .T. ) ;
#136 = ORIENTED_EDGE ( 'NONE', *, *, #200, .F. ) ;
#137 = ORIENTED_EDGE ( 'NONE', *, *, #205, .T. ) ;
#138 = ORIENTED_EDGE ( 'NONE', *, *, #202, .F. ) ;
#139 = ORIENTED_EDGE ( 'NONE', *, *, #197, .F. ) ;
#140 = ORIENTED_EDGE ( 'NONE', *, *, #207, .T. ) ;
#141 = ORIENTED_EDGE ( 'NONE', *, *, #201, .T. ) ;
#142 = ORIENTED_EDGE ( 'NONE', *, *, #205, .F. ) ;
#143 = ORIENTED_EDGE ( 'NONE', *, *, #206, .F. ) ;
#144 = ORIENTED_EDGE ( 'NONE', *, *, #190, .T. ) ;
#145 = ORIENTED_EDGE ( 'NONE', *, *, #204, .T. ) ;
#146 = ORIENTED_EDGE ( 'NONE', *, *, #201, .F. ) ;
#147 = ORIENTED_EDGE ( 'NONE', *, *, #203, .F. ) ;
#148 = ORIENTED_EDGE ( 'NONE', *, *, #207, .F. ) ;
#149 = ORIENTED_EDGE ( 'NONE', *, *, #195, .F. ) ;
#150 = ORIENTED_EDGE ( 'NONE', *, *, #192, .F. ) ;
#151 = ORIENTED_EDGE ( 'NONE', *, *, #190, .F. ) ;
#152 = ORIENTED_EDGE ( 'NONE', *, *, #197, .T. ) ;
#153 = ORIENTED_EDGE ( 'NONE', *, *, #206, .T. ) ;
#154 = ORIENTED_EDGE ( 'NONE', *, *, #203, .T. ) ;
#155 = ORIENTED_EDGE ( 'NONE', *, *, #202, .T. ) ;
#156 = ORIENTED_EDGE ( 'NONE', *, *, #200, .T. ) ;
#157 = ORIENTED_EDGE ( 'NONE', *, *, #204, .F. ) ;
#158 = ORIENTED_EDGE ( 'NONE', *, *, #192, .T. ) ;
#159 = APPLICATION_PROTOCOL_DEFINITION ( 'draft international standard', 'automotive_design', 1998, #2 ) ;
#160 = VECTOR ( 'NONE', #57, 39.37007874015748100 ) ;
#161 = VECTOR ( 'NONE', #66, 39.37007874015748100 ) ;
#162 = PRESENTATION_LAYER_ASSIGNMENT (  '', '', ( #170 ) ) ;
#163 = VECTOR ( 'NONE', #63, 39.37007874015748100 ) ;
#164 = AXIS2_PLACEMENT_3D ( 'NONE', #49, #44, #47 ) ;
#165 = PRODUCT_DEFINITION_FORMATION_WITH_SPECIFIED_SOURCE ( 'ANY', '', #4, .NOT_KNOWN. ) ;
#166 = VECTOR ( 'NONE', #60, 39.37007874015748100 ) ;
#167 = LENGTH_MEASURE_WITH_UNIT ( LENGTH_MEASURE( 0.02539999999999999900 ), #26 );
#168 = AXIS2_PLACEMENT_3D ( 'NONE', #42, #105, #104 ) ;
#169 = VECTOR ( 'NONE', #70, 39.37007874015748100 ) ;
#170 = STYLED_ITEM ( 'NONE', ( #31 ), #7 ) ;
#171 = MECHANICAL_DESIGN_GEOMETRIC_PRESENTATION_REPRESENTATION (  '', ( #170 ), #22 ) ;
#172 = AXIS2_PLACEMENT_3D ( 'NONE', #82, #81, #80 ) ;
#173 = VECTOR ( 'NONE', #54, 39.37007874015748100 ) ;
#174 = VECTOR ( 'NONE', #77, 39.37007874015748100 ) ;
#175 = AXIS2_PLACEMENT_3D ( 'NONE', #75, #74, #73 ) ;
#176 = FACE_OUTER_BOUND ( 'NONE', #131, .T. ) ;
#177 = FACE_OUTER_BOUND ( 'NONE', #133, .T. ) ;
#178 = VECTOR ( 'NONE', #84, 39.37007874015748100 ) ;
#179 = FACE_OUTER_BOUND ( 'NONE', #130, .T. ) ;
#180 = AXIS2_PLACEMENT_3D ( 'NONE', #89, #88, #87 ) ;
#181 = VECTOR ( 'NONE', #53, 39.37007874015748100 ) ;
#182 = VECTOR ( 'NONE', #50, 39.37007874015748100 ) ;
#183 = AXIS2_PLACEMENT_3D ( 'NONE', #41, #40, #39 ) ;
#184 = FACE_OUTER_BOUND ( 'NONE', #132, .T. ) ;
#185 = LENGTH_MEASURE_WITH_UNIT ( LENGTH_MEASURE( 0.02539999999999999900 ), #43 );
#186 = FACE_OUTER_BOUND ( 'NONE', #134, .T. ) ;
#187 = PRODUCT_DEFINITION_SHAPE ( 'NONE', 'NONE',  #191 ) ;
#188 = MANIFOLD_SOLID_BREP ( 'Boss-Extrude1', #12 ) ;
#189 = PRODUCT_DEFINITION_CONTEXT ( 'detailed design', #2, 'design' ) ;
#190 = EDGE_CURVE ( 'NONE', #128, #122, #100, .T. ) ;
#191 = PRODUCT_DEFINITION ( 'UNKNOWN', '', #165, #189 ) ;
#192 = EDGE_CURVE ( 'NONE', #126, #128, #96, .T. ) ;
#193 = ADVANCED_FACE ( 'NONE', ( #15 ), #97, .F. ) ;
#194 = ADVANCED_FACE ( 'NONE', ( #186 ), #90, .F. ) ;
#195 = EDGE_CURVE ( 'NONE', #125, #126, #86, .T. ) ;
#196 = ADVANCED_FACE ( 'NONE', ( #179 ), #83, .T. ) ;
#197 = EDGE_CURVE ( 'NONE', #124, #123, #79, .T. ) ;
#198 = ADVANCED_FACE ( 'NONE', ( #176 ), #76, .F. ) ;
#199 = PRODUCT_RELATED_PRODUCT_CATEGORY ( 'part', '', ( #4 ) ) ;
#200 = EDGE_CURVE ( 'NONE', #123, #121, #72, .T. ) ;
#201 = EDGE_CURVE ( 'NONE', #127, #128, #68, .T. ) ;
#202 = EDGE_CURVE ( 'NONE', #123, #125, #65, .T. ) ;
#203 = EDGE_CURVE ( 'NONE', #121, #127, #62, .T. ) ;
#204 = EDGE_CURVE ( 'NONE', #121, #126, #59, .T. ) ;
#205 = EDGE_CURVE ( 'NONE', #124, #122, #56, .T. ) ;
#206 = EDGE_CURVE ( 'NONE', #127, #124, #51, .T. ) ;
#207 = EDGE_CURVE ( 'NONE', #122, #125, #52, .T. ) ;
#208 = COLOUR_RGB ( '',0.5686274509803921400, 0.5686274509803921400, 0.5882352941176470800 ) ;
#209 = COLOUR_RGB ( '',0.5686274509803921400, 0.5686274509803921400, 0.5882352941176470800 ) ;
#210 = ADVANCED_FACE ( 'NONE', ( #177 ), #69, .F. ) ;
#211 = ADVANCED_FACE ( 'NONE', ( #184 ), #46, .F. ) ;
ENDSEC;
END-ISO-10303-21;
