ISO-10303-21;
HEADER;
FILE_DESCRIPTION (( 'STEP AP214' ),
    '1' );
FILE_NAME ('P125CF.step',
    '2012-04-20T21:00:43',
    ( '' ),
    ( '' ),
    'SwSTEP 2.0',
    'SolidWorks 2012',
    '' );
FILE_SCHEMA (( 'AUTOMOTIVE_DESIGN' ));
ENDSEC;

DATA;
#1 = DIMENSIONAL_EXPONENTS ( 1.000000000000000000, 0.0000000000000000000, 0.0000000000000000000, 0.0000000000000000000, 0.0000000000000000000, 0.0000000000000000000, 0.0000000000000000000 ) ;
#2 = DIMENSIONAL_EXPONENTS ( 1.000000000000000000, 0.0000000000000000000, 0.0000000000000000000, 0.0000000000000000000, 0.0000000000000000000, 0.0000000000000000000, 0.0000000000000000000 ) ;
#3 = PRODUCT ( 'P125CF', 'P125CF', '', ( #210 ) ) ;
#4 = DIMENSIONAL_EXPONENTS ( 1.000000000000000000, 0.0000000000000000000, 0.0000000000000000000, 0.0000000000000000000, 0.0000000000000000000, 0.0000000000000000000, 0.0000000000000000000 ) ;
#5 = FACE_OUTER_BOUND ( 'NONE', #138, .T. ) ;
#6 = FACE_OUTER_BOUND ( 'NONE', #143, .T. ) ;
#7 = AXIS2_PLACEMENT_3D ( 'NONE', #102, #101, #99 ) ;
#8 = AXIS2_PLACEMENT_3D ( 'NONE', #98, #97, #94 ) ;
#9 = FACE_OUTER_BOUND ( 'NONE', #141, .T. ) ;
#10 = VECTOR ( 'NONE', #89, 39.37007874015748100 ) ;
#11 = AXIS2_PLACEMENT_3D ( 'NONE', #95, #91, #92 ) ;
#12 = FACE_OUTER_BOUND ( 'NONE', #142, .T. ) ;
#13 = AXIS2_PLACEMENT_3D ( 'NONE', #106, #105, #104 ) ;
#14 = FACE_OUTER_BOUND ( 'NONE', #140, .T. ) ;
#15 = CLOSED_SHELL ( 'NONE', ( #173, #174, #160, #158, #159, #161 ) ) ;
#16 =( GEOMETRIC_REPRESENTATION_CONTEXT ( 3 ) GLOBAL_UNCERTAINTY_ASSIGNED_CONTEXT ( ( #155 ) ) GLOBAL_UNIT_ASSIGNED_CONTEXT ( ( #38, #37, #35 ) ) REPRESENTATION_CONTEXT ( 'NONE', 'WORKASPACE' ) );
#17 =( GEOMETRIC_REPRESENTATION_CONTEXT ( 3 ) GLOBAL_UNCERTAINTY_ASSIGNED_CONTEXT ( ( #156 ) ) GLOBAL_UNIT_ASSIGNED_CONTEXT ( ( #30, #31, #29 ) ) REPRESENTATION_CONTEXT ( 'NONE', 'WORKASPACE' ) );
#18 =( GEOMETRIC_REPRESENTATION_CONTEXT ( 3 ) GLOBAL_UNCERTAINTY_ASSIGNED_CONTEXT ( ( #154 ) ) GLOBAL_UNIT_ASSIGNED_CONTEXT ( ( #19, #36, #28 ) ) REPRESENTATION_CONTEXT ( 'NONE', 'WORKASPACE' ) );
#19 =( CONVERSION_BASED_UNIT ( 'INCH', #200 ) LENGTH_UNIT ( ) NAMED_UNIT ( #4 ) );
#20 = SURFACE_SIDE_STYLE ('',( #22 ) ) ;
#21 =( LENGTH_UNIT ( ) NAMED_UNIT ( * ) SI_UNIT ( $, .METRE. ) );
#22 = SURFACE_STYLE_FILL_AREA ( #25 ) ;
#23 = SURFACE_STYLE_USAGE ( .BOTH. , #20 ) ;
#24 = PRESENTATION_STYLE_ASSIGNMENT (( #23 ) ) ;
#25 = FILL_AREA_STYLE ('',( #26 ) ) ;
#26 = FILL_AREA_STYLE_COLOUR ( '', #176 ) ;
#27 = APPLICATION_PROTOCOL_DEFINITION ( 'draft international standard', 'automotive_design', 1998, #208 ) ;
#28 =( NAMED_UNIT ( * ) SI_UNIT ( $, .STERADIAN. ) SOLID_ANGLE_UNIT ( ) );
#29 =( NAMED_UNIT ( * ) SI_UNIT ( $, .STERADIAN. ) SOLID_ANGLE_UNIT ( ) );
#30 =( CONVERSION_BASED_UNIT ( 'INCH', #185 ) LENGTH_UNIT ( ) NAMED_UNIT ( #1 ) );
#31 =( NAMED_UNIT ( * ) PLANE_ANGLE_UNIT ( ) SI_UNIT ( $, .RADIAN. ) );
#32 =( LENGTH_UNIT ( ) NAMED_UNIT ( * ) SI_UNIT ( $, .METRE. ) );
#33 = DIRECTION ( 'NONE',  ( 1.000000000000000000, 0.0000000000000000000, 0.0000000000000000000 ) ) ;
#34 = SHAPE_DEFINITION_REPRESENTATION ( #180, #157 ) ;
#35 =( NAMED_UNIT ( * ) SI_UNIT ( $, .STERADIAN. ) SOLID_ANGLE_UNIT ( ) );
#36 =( NAMED_UNIT ( * ) PLANE_ANGLE_UNIT ( ) SI_UNIT ( $, .RADIAN. ) );
#37 =( NAMED_UNIT ( * ) PLANE_ANGLE_UNIT ( ) SI_UNIT ( $, .RADIAN. ) );
#38 =( CONVERSION_BASED_UNIT ( 'INCH', #187 ) LENGTH_UNIT ( ) NAMED_UNIT ( #2 ) );
#39 =( LENGTH_UNIT ( ) NAMED_UNIT ( * ) SI_UNIT ( $, .METRE. ) );
#40 = PRESENTATION_STYLE_ASSIGNMENT (( #41 ) ) ;
#41 = SURFACE_STYLE_USAGE ( .BOTH. , #42 ) ;
#42 = SURFACE_SIDE_STYLE ('',( #43 ) ) ;
#43 = SURFACE_STYLE_FILL_AREA ( #44 ) ;
#44 = FILL_AREA_STYLE ('',( #45 ) ) ;
#45 = FILL_AREA_STYLE_COLOUR ( '', #178 ) ;
#46 = DIRECTION ( 'NONE',  ( -0.0000000000000000000, -0.0000000000000000000, 1.000000000000000000 ) ) ;
#47 = CARTESIAN_POINT ( 'NONE',  ( 0.0000000000000000000, 0.1250000000000000000, 0.0000000000000000000 ) ) ;
#48 = LINE ( 'NONE', #47, #189 ) ;
#49 = DIRECTION ( 'NONE',  ( 9.106159978880877400E-017, 0.0000000000000000000, 1.000000000000000000 ) ) ;
#50 = DIRECTION ( 'NONE',  ( -1.000000000000000000, 0.0000000000000000000, 9.106159978880877400E-017 ) ) ;
#51 = CARTESIAN_POINT ( 'NONE',  ( 0.3749999999999999400, 0.1250000000000000000, -0.7500000000000001100 ) ) ;
#52 = PLANE ( 'NONE',  #191 ) ;
#53 = DIRECTION ( 'NONE',  ( -1.000000000000000000, 0.0000000000000000000, 4.082155997157846300E-017 ) ) ;
#54 = DIRECTION ( 'NONE',  ( -4.082155997157846300E-017, 0.0000000000000000000, -1.000000000000000000 ) ) ;
#55 = CARTESIAN_POINT ( 'NONE',  ( 0.3750000000000000600, 0.1250000000000000000, -1.530808498934192100E-017 ) ) ;
#56 = DIRECTION ( 'NONE',  ( -0.0000000000000000000, -1.000000000000000000, -0.0000000000000000000 ) ) ;
#57 = CARTESIAN_POINT ( 'NONE',  ( 0.3750000000000000600, 0.1250000000000000000, -1.530808498934192100E-017 ) ) ;
#58 = LINE ( 'NONE', #57, #197 ) ;
#59 = DIRECTION ( 'NONE',  ( 1.000000000000000000, -0.0000000000000000000, -4.082155997157846300E-017 ) ) ;
#60 = CARTESIAN_POINT ( 'NONE',  ( 0.3750000000000000600, 0.0000000000000000000, -1.530808498934192100E-017 ) ) ;
#61 = LINE ( 'NONE', #60, #198 ) ;
#62 = DIRECTION ( 'NONE',  ( 1.000000000000000000, -0.0000000000000000000, -4.082155997157846300E-017 ) ) ;
#63 = CARTESIAN_POINT ( 'NONE',  ( 0.3750000000000000600, 0.1250000000000000000, -1.530808498934192100E-017 ) ) ;
#64 = LINE ( 'NONE', #63, #199 ) ;
#65 = DIRECTION ( 'NONE',  ( -0.0000000000000000000, -1.000000000000000000, -0.0000000000000000000 ) ) ;
#66 = CARTESIAN_POINT ( 'NONE',  ( 0.0000000000000000000, 0.1250000000000000000, 0.0000000000000000000 ) ) ;
#67 = LINE ( 'NONE', #66, #202 ) ;
#68 = DIRECTION ( 'NONE',  ( -0.0000000000000000000, -1.000000000000000000, -0.0000000000000000000 ) ) ;
#69 = CARTESIAN_POINT ( 'NONE',  ( 0.3749999999999999400, 0.1250000000000000000, -0.7500000000000001100 ) ) ;
#70 = LINE ( 'NONE', #69, #206 ) ;
#71 = DIRECTION ( 'NONE',  ( -9.106159978880878600E-017, -0.0000000000000000000, -1.000000000000000000 ) ) ;
#72 = CARTESIAN_POINT ( 'NONE',  ( 0.3749999999999999400, 0.0000000000000000000, -0.7500000000000001100 ) ) ;
#73 = LINE ( 'NONE', #72, #207 ) ;
#74 = DIRECTION ( 'NONE',  ( -9.106159978880878600E-017, -0.0000000000000000000, -1.000000000000000000 ) ) ;
#75 = CARTESIAN_POINT ( 'NONE',  ( 0.3749999999999999400, 0.1250000000000000000, -0.7500000000000001100 ) ) ;
#76 = LINE ( 'NONE', #75, #204 ) ;
#77 = DIRECTION ( 'NONE',  ( -0.0000000000000000000, -1.000000000000000000, -0.0000000000000000000 ) ) ;
#78 = CARTESIAN_POINT ( 'NONE',  ( 0.0000000000000000000, 0.1250000000000000000, -0.7500000000000001100 ) ) ;
#79 = LINE ( 'NONE', #78, #194 ) ;
#80 = DIRECTION ( 'NONE',  ( -1.000000000000000000, -0.0000000000000000000, -0.0000000000000000000 ) ) ;
#81 = CARTESIAN_POINT ( 'NONE',  ( 0.0000000000000000000, 0.0000000000000000000, -0.7500000000000001100 ) ) ;
#82 = LINE ( 'NONE', #81, #196 ) ;
#83 = DIRECTION ( 'NONE',  ( -1.000000000000000000, -0.0000000000000000000, -0.0000000000000000000 ) ) ;
#84 = CARTESIAN_POINT ( 'NONE',  ( 0.0000000000000000000, 0.1250000000000000000, -0.7500000000000001100 ) ) ;
#85 = LINE ( 'NONE', #84, #184 ) ;
#86 = DIRECTION ( 'NONE',  ( 0.0000000000000000000, 0.0000000000000000000, 1.000000000000000000 ) ) ;
#87 = CARTESIAN_POINT ( 'NONE',  ( 0.0000000000000000000, 0.0000000000000000000, 0.0000000000000000000 ) ) ;
#88 = CARTESIAN_POINT ( 'NONE',  ( 0.0000000000000000000, 0.0000000000000000000, 0.0000000000000000000 ) ) ;
#89 = DIRECTION ( 'NONE',  ( -0.0000000000000000000, -0.0000000000000000000, 1.000000000000000000 ) ) ;
#90 = PLANE ( 'NONE',  #195 ) ;
#91 = DIRECTION ( 'NONE',  ( 0.0000000000000000000, -1.000000000000000000, -0.0000000000000000000 ) ) ;
#92 = DIRECTION ( 'NONE',  ( 0.0000000000000000000, 0.0000000000000000000, -1.000000000000000000 ) ) ;
#93 = LINE ( 'NONE', #88, #10 ) ;
#94 = DIRECTION ( 'NONE',  ( 1.000000000000000000, 0.0000000000000000000, -0.0000000000000000000 ) ) ;
#95 = CARTESIAN_POINT ( 'NONE',  ( 0.0000000000000000000, 0.0000000000000000000, 0.0000000000000000000 ) ) ;
#96 = PLANE ( 'NONE',  #11 ) ;
#97 = DIRECTION ( 'NONE',  ( 0.0000000000000000000, 0.0000000000000000000, 1.000000000000000000 ) ) ;
#98 = CARTESIAN_POINT ( 'NONE',  ( 0.0000000000000000000, 0.1250000000000000000, -0.7500000000000001100 ) ) ;
#99 = DIRECTION ( 'NONE',  ( 0.0000000000000000000, 0.0000000000000000000, -1.000000000000000000 ) ) ;
#100 = PLANE ( 'NONE',  #8 ) ;
#101 = DIRECTION ( 'NONE',  ( 0.0000000000000000000, -1.000000000000000000, -0.0000000000000000000 ) ) ;
#102 = CARTESIAN_POINT ( 'NONE',  ( 0.0000000000000000000, 0.1250000000000000000, 0.0000000000000000000 ) ) ;
#103 = PLANE ( 'NONE',  #7 ) ;
#104 = DIRECTION ( 'NONE',  ( 0.0000000000000000000, 0.0000000000000000000, -1.000000000000000000 ) ) ;
#105 = DIRECTION ( 'NONE',  ( 1.000000000000000000, -0.0000000000000000000, 0.0000000000000000000 ) ) ;
#106 = CARTESIAN_POINT ( 'NONE',  ( 0.0000000000000000000, 0.1250000000000000000, 0.0000000000000000000 ) ) ;
#107 = PLANE ( 'NONE',  #13 ) ;
#108 = CARTESIAN_POINT ( 'NONE',  ( 0.3750000000000000600, 0.1250000000000000000, -1.530808498934192100E-017 ) ) ;
#109 = CARTESIAN_POINT ( 'NONE',  ( 0.0000000000000000000, 0.1250000000000000000, -0.7500000000000001100 ) ) ;
#110 = CARTESIAN_POINT ( 'NONE',  ( 0.0000000000000000000, 0.0000000000000000000, -0.7500000000000001100 ) ) ;
#111 = CARTESIAN_POINT ( 'NONE',  ( 0.3749999999999999400, 0.1250000000000000000, -0.7500000000000001100 ) ) ;
#112 = CARTESIAN_POINT ( 'NONE',  ( 0.3749999999999999400, 0.0000000000000000000, -0.7500000000000001100 ) ) ;
#113 = CARTESIAN_POINT ( 'NONE',  ( 0.0000000000000000000, 0.1250000000000000000, 0.0000000000000000000 ) ) ;
#114 = CARTESIAN_POINT ( 'NONE',  ( 0.3750000000000000600, 0.0000000000000000000, -1.530808498934192100E-017 ) ) ;
#115 = CARTESIAN_POINT ( 'NONE',  ( 0.0000000000000000000, 0.0000000000000000000, 0.0000000000000000000 ) ) ;
#116 = ORIENTED_EDGE ( 'NONE', *, *, #162, .T. ) ;
#117 = ORIENTED_EDGE ( 'NONE', *, *, #177, .F. ) ;
#118 = ORIENTED_EDGE ( 'NONE', *, *, #168, .T. ) ;
#119 = ORIENTED_EDGE ( 'NONE', *, *, #165, .F. ) ;
#120 = ORIENTED_EDGE ( 'NONE', *, *, #163, .F. ) ;
#121 = ORIENTED_EDGE ( 'NONE', *, *, #164, .T. ) ;
#122 = ORIENTED_EDGE ( 'NONE', *, *, #172, .T. ) ;
#123 = ORIENTED_EDGE ( 'NONE', *, *, #168, .F. ) ;
#124 = ORIENTED_EDGE ( 'NONE', *, *, #166, .F. ) ;
#125 = ORIENTED_EDGE ( 'NONE', *, *, #167, .T. ) ;
#126 = ORIENTED_EDGE ( 'NONE', *, *, #169, .T. ) ;
#127 = ORIENTED_EDGE ( 'NONE', *, *, #172, .F. ) ;
#128 = ORIENTED_EDGE ( 'NONE', *, *, #170, .F. ) ;
#129 = ORIENTED_EDGE ( 'NONE', *, *, #171, .T. ) ;
#130 = VERTEX_POINT ( 'NONE', #115 ) ;
#131 = VERTEX_POINT ( 'NONE', #114 ) ;
#132 = VERTEX_POINT ( 'NONE', #113 ) ;
#133 = VERTEX_POINT ( 'NONE', #112 ) ;
#134 = VERTEX_POINT ( 'NONE', #111 ) ;
#135 = VERTEX_POINT ( 'NONE', #110 ) ;
#136 = VERTEX_POINT ( 'NONE', #109 ) ;
#137 = VERTEX_POINT ( 'NONE', #108 ) ;
#138 = EDGE_LOOP ( 'NONE', ( #146, #145, #144, #147 ) ) ;
#139 = EDGE_LOOP ( 'NONE', ( #125, #123, #124, #122 ) ) ;
#140 = EDGE_LOOP ( 'NONE', ( #121, #119, #120, #118 ) ) ;
#141 = EDGE_LOOP ( 'NONE', ( #129, #127, #128, #126 ) ) ;
#142 = EDGE_LOOP ( 'NONE', ( #116, #153, #117, #151 ) ) ;
#143 = EDGE_LOOP ( 'NONE', ( #150, #149, #148, #152 ) ) ;
#144 = ORIENTED_EDGE ( 'NONE', *, *, #164, .F. ) ;
#145 = ORIENTED_EDGE ( 'NONE', *, *, #162, .F. ) ;
#146 = ORIENTED_EDGE ( 'NONE', *, *, #171, .F. ) ;
#147 = ORIENTED_EDGE ( 'NONE', *, *, #167, .F. ) ;
#148 = ORIENTED_EDGE ( 'NONE', *, *, #163, .T. ) ;
#149 = ORIENTED_EDGE ( 'NONE', *, *, #166, .T. ) ;
#150 = ORIENTED_EDGE ( 'NONE', *, *, #170, .T. ) ;
#151 = ORIENTED_EDGE ( 'NONE', *, *, #165, .T. ) ;
#152 = ORIENTED_EDGE ( 'NONE', *, *, #177, .T. ) ;
#153 = ORIENTED_EDGE ( 'NONE', *, *, #169, .F. ) ;
#154 = UNCERTAINTY_MEASURE_WITH_UNIT (LENGTH_MEASURE( 1.000000000000000100E-005 ), #19, 'distance_accuracy_value', 'NONE');
#155 = UNCERTAINTY_MEASURE_WITH_UNIT (LENGTH_MEASURE( 1.000000000000000100E-005 ), #38, 'distance_accuracy_value', 'NONE');
#156 = UNCERTAINTY_MEASURE_WITH_UNIT (LENGTH_MEASURE( 1.000000000000000100E-005 ), #30, 'distance_accuracy_value', 'NONE');
#157 = ADVANCED_BREP_SHAPE_REPRESENTATION ( 'P125CF', ( #181, #183 ), #17 ) ;
#158 = ADVANCED_FACE ( 'NONE', ( #12 ), #107, .F. ) ;
#159 = ADVANCED_FACE ( 'NONE', ( #6 ), #103, .F. ) ;
#160 = ADVANCED_FACE ( 'NONE', ( #14 ), #100, .F. ) ;
#161 = ADVANCED_FACE ( 'NONE', ( #5 ), #96, .T. ) ;
#162 = EDGE_CURVE ( 'NONE', #135, #130, #93, .T. ) ;
#163 = EDGE_CURVE ( 'NONE', #134, #136, #85, .T. ) ;
#164 = EDGE_CURVE ( 'NONE', #133, #135, #82, .T. ) ;
#165 = EDGE_CURVE ( 'NONE', #136, #135, #79, .T. ) ;
#166 = EDGE_CURVE ( 'NONE', #137, #134, #76, .T. ) ;
#167 = EDGE_CURVE ( 'NONE', #131, #133, #73, .T. ) ;
#168 = EDGE_CURVE ( 'NONE', #134, #133, #70, .T. ) ;
#169 = EDGE_CURVE ( 'NONE', #132, #130, #67, .T. ) ;
#170 = EDGE_CURVE ( 'NONE', #132, #137, #64, .T. ) ;
#171 = EDGE_CURVE ( 'NONE', #130, #131, #61, .T. ) ;
#172 = EDGE_CURVE ( 'NONE', #137, #131, #58, .T. ) ;
#173 = ADVANCED_FACE ( 'NONE', ( #9 ), #90, .F. ) ;
#174 = ADVANCED_FACE ( 'NONE', ( #193 ), #52, .F. ) ;
#175 = PRODUCT_DEFINITION ( 'UNKNOWN', '', #201, #182 ) ;
#176 = COLOUR_RGB ( '',0.5686274509803921400, 0.5686274509803921400, 0.5882352941176470800 ) ;
#177 = EDGE_CURVE ( 'NONE', #136, #132, #48, .T. ) ;
#178 = COLOUR_RGB ( '',0.5686274509803921400, 0.5686274509803921400, 0.5882352941176470800 ) ;
#179 = PRODUCT_RELATED_PRODUCT_CATEGORY ( 'part', '', ( #3 ) ) ;
#180 = PRODUCT_DEFINITION_SHAPE ( 'NONE', 'NONE',  #175 ) ;
#181 = MANIFOLD_SOLID_BREP ( 'Boss-Extrude1', #15 ) ;
#182 = PRODUCT_DEFINITION_CONTEXT ( 'detailed design', #209, 'design' ) ;
#183 = AXIS2_PLACEMENT_3D ( 'NONE', #87, #86, #33 ) ;
#184 = VECTOR ( 'NONE', #83, 39.37007874015748100 ) ;
#185 = LENGTH_MEASURE_WITH_UNIT ( LENGTH_MEASURE( 0.02539999999999999900 ), #32 );
#186 = MECHANICAL_DESIGN_GEOMETRIC_PRESENTATION_REPRESENTATION (  '', ( #190 ), #18 ) ;
#187 = LENGTH_MEASURE_WITH_UNIT ( LENGTH_MEASURE( 0.02539999999999999900 ), #39 );
#188 = MECHANICAL_DESIGN_GEOMETRIC_PRESENTATION_REPRESENTATION (  '', ( #192 ), #16 ) ;
#189 = VECTOR ( 'NONE', #46, 39.37007874015748100 ) ;
#190 = STYLED_ITEM ( 'NONE', ( #24 ), #157 ) ;
#191 = AXIS2_PLACEMENT_3D ( 'NONE', #51, #50, #49 ) ;
#192 = STYLED_ITEM ( 'NONE', ( #40 ), #181 ) ;
#193 = FACE_OUTER_BOUND ( 'NONE', #139, .T. ) ;
#194 = VECTOR ( 'NONE', #77, 39.37007874015748100 ) ;
#195 = AXIS2_PLACEMENT_3D ( 'NONE', #55, #54, #53 ) ;
#196 = VECTOR ( 'NONE', #80, 39.37007874015748100 ) ;
#197 = VECTOR ( 'NONE', #56, 39.37007874015748100 ) ;
#198 = VECTOR ( 'NONE', #59, 39.37007874015748100 ) ;
#199 = VECTOR ( 'NONE', #62, 39.37007874015748100 ) ;
#200 = LENGTH_MEASURE_WITH_UNIT ( LENGTH_MEASURE( 0.02539999999999999900 ), #21 );
#201 = PRODUCT_DEFINITION_FORMATION_WITH_SPECIFIED_SOURCE ( 'ANY', '', #3, .NOT_KNOWN. ) ;
#202 = VECTOR ( 'NONE', #65, 39.37007874015748100 ) ;
#203 = PRESENTATION_LAYER_ASSIGNMENT (  '', '', ( #190 ) ) ;
#204 = VECTOR ( 'NONE', #74, 39.37007874015748100 ) ;
#205 = PRESENTATION_LAYER_ASSIGNMENT (  '', '', ( #192 ) ) ;
#206 = VECTOR ( 'NONE', #68, 39.37007874015748100 ) ;
#207 = VECTOR ( 'NONE', #71, 39.37007874015748100 ) ;
#208 = APPLICATION_CONTEXT ( 'automotive_design' ) ;
#209 = APPLICATION_CONTEXT ( 'automotive_design' ) ;
#210 = PRODUCT_CONTEXT ( 'NONE', #208, 'mechanical' ) ;
#211 = APPLICATION_PROTOCOL_DEFINITION ( 'draft international standard', 'automotive_design', 1998, #209 ) ;
ENDSEC;
END-ISO-10303-21;
