ISO-10303-21;
HEADER;
FILE_DESCRIPTION (( 'STEP AP214' ),
    '1' );
FILE_NAME ('P125D4000.step',
    '2012-04-20T21:00:45',
    ( '' ),
    ( '' ),
    'SwSTEP 2.0',
    'SolidWorks 2012',
    '' );
FILE_SCHEMA (( 'AUTOMOTIVE_DESIGN' ));
ENDSEC;

DATA;
#1 = DIMENSIONAL_EXPONENTS ( 1.000000000000000000, 0.0000000000000000000, 0.0000000000000000000, 0.0000000000000000000, 0.0000000000000000000, 0.0000000000000000000, 0.0000000000000000000 ) ;
#2 = PRODUCT ( 'P125D4000', 'P125D4000', '', ( #20 ) ) ;
#3 = DIMENSIONAL_EXPONENTS ( 1.000000000000000000, 0.0000000000000000000, 0.0000000000000000000, 0.0000000000000000000, 0.0000000000000000000, 0.0000000000000000000, 0.0000000000000000000 ) ;
#4 = DIMENSIONAL_EXPONENTS ( 1.000000000000000000, 0.0000000000000000000, 0.0000000000000000000, 0.0000000000000000000, 0.0000000000000000000, 0.0000000000000000000, 0.0000000000000000000 ) ;
#5 = PRESENTATION_LAYER_ASSIGNMENT (  '', '', ( #8 ) ) ;
#6 = FACE_OUTER_BOUND ( 'NONE', #125, .T. ) ;
#7 = FACE_OUTER_BOUND ( 'NONE', #122, .T. ) ;
#8 = STYLED_ITEM ( 'NONE', ( #106 ), #173 ) ;
#9 = CLOSED_SHELL ( 'NONE', ( #190, #210, #209, #208, #207, #206 ) ) ;
#10 = AXIS2_PLACEMENT_3D ( 'NONE', #100, #99, #98 ) ;
#11 = LENGTH_MEASURE_WITH_UNIT ( LENGTH_MEASURE( 0.02539999999999999900 ), #105 );
#12 = MECHANICAL_DESIGN_GEOMETRIC_PRESENTATION_REPRESENTATION (  '', ( #8 ), #13 ) ;
#13 =( GEOMETRIC_REPRESENTATION_CONTEXT ( 3 ) GLOBAL_UNCERTAINTY_ASSIGNED_CONTEXT ( ( #142 ) ) GLOBAL_UNIT_ASSIGNED_CONTEXT ( ( #104, #103, #102 ) ) REPRESENTATION_CONTEXT ( 'NONE', 'WORKASPACE' ) );
#14 =( GEOMETRIC_REPRESENTATION_CONTEXT ( 3 ) GLOBAL_UNCERTAINTY_ASSIGNED_CONTEXT ( ( #141 ) ) GLOBAL_UNIT_ASSIGNED_CONTEXT ( ( #39, #38, #37 ) ) REPRESENTATION_CONTEXT ( 'NONE', 'WORKASPACE' ) );
#15 =( GEOMETRIC_REPRESENTATION_CONTEXT ( 3 ) GLOBAL_UNCERTAINTY_ASSIGNED_CONTEXT ( ( #143 ) ) GLOBAL_UNIT_ASSIGNED_CONTEXT ( ( #28, #29, #27 ) ) REPRESENTATION_CONTEXT ( 'NONE', 'WORKASPACE' ) );
#16 = VERTEX_POINT ( 'NONE', #119 ) ;
#17 = VERTEX_POINT ( 'NONE', #118 ) ;
#18 = VERTEX_POINT ( 'NONE', #117 ) ;
#19 = APPLICATION_PROTOCOL_DEFINITION ( 'draft international standard', 'automotive_design', 1998, #176 ) ;
#20 = PRODUCT_CONTEXT ( 'NONE', #175, 'mechanical' ) ;
#21 = PRESENTATION_STYLE_ASSIGNMENT (( #30 ) ) ;
#22 = VERTEX_POINT ( 'NONE', #116 ) ;
#23 = SHAPE_DEFINITION_REPRESENTATION ( #174, #140 ) ;
#24 = DIRECTION ( 'NONE',  ( 1.000000000000000000, 0.0000000000000000000, 0.0000000000000000000 ) ) ;
#25 = DIRECTION ( 'NONE',  ( 0.0000000000000000000, 0.0000000000000000000, 1.000000000000000000 ) ) ;
#26 = CARTESIAN_POINT ( 'NONE',  ( 0.0000000000000000000, 0.0000000000000000000, 0.0000000000000000000 ) ) ;
#27 =( NAMED_UNIT ( * ) SI_UNIT ( $, .STERADIAN. ) SOLID_ANGLE_UNIT ( ) );
#28 =( CONVERSION_BASED_UNIT ( 'INCH', #152 ) LENGTH_UNIT ( ) NAMED_UNIT ( #1 ) );
#29 =( NAMED_UNIT ( * ) PLANE_ANGLE_UNIT ( ) SI_UNIT ( $, .RADIAN. ) );
#30 = SURFACE_STYLE_USAGE ( .BOTH. , #34 ) ;
#31 =( LENGTH_UNIT ( ) NAMED_UNIT ( * ) SI_UNIT ( $, .METRE. ) );
#32 = FILL_AREA_STYLE ('',( #36 ) ) ;
#33 = SURFACE_STYLE_FILL_AREA ( #32 ) ;
#34 = SURFACE_SIDE_STYLE ('',( #33 ) ) ;
#35 = APPLICATION_PROTOCOL_DEFINITION ( 'draft international standard', 'automotive_design', 1998, #175 ) ;
#36 = FILL_AREA_STYLE_COLOUR ( '', #193 ) ;
#37 =( NAMED_UNIT ( * ) SI_UNIT ( $, .STERADIAN. ) SOLID_ANGLE_UNIT ( ) );
#38 =( NAMED_UNIT ( * ) PLANE_ANGLE_UNIT ( ) SI_UNIT ( $, .RADIAN. ) );
#39 =( CONVERSION_BASED_UNIT ( 'INCH', #151 ) LENGTH_UNIT ( ) NAMED_UNIT ( #4 ) );
#40 =( LENGTH_UNIT ( ) NAMED_UNIT ( * ) SI_UNIT ( $, .METRE. ) );
#41 = DIRECTION ( 'NONE',  ( 1.365923996832131600E-016, 0.0000000000000000000, 1.000000000000000000 ) ) ;
#42 = DIRECTION ( 'NONE',  ( -1.000000000000000000, 0.0000000000000000000, 1.365923996832131600E-016 ) ) ;
#43 = CARTESIAN_POINT ( 'NONE',  ( 0.4999999999999994400, 0.1250000000000000000, -4.000000000000000000 ) ) ;
#44 = PLANE ( 'NONE',  #154 ) ;
#45 = DIRECTION ( 'NONE',  ( 1.000000000000000000, 0.0000000000000000000, -0.0000000000000000000 ) ) ;
#46 = DIRECTION ( 'NONE',  ( 0.0000000000000000000, 0.0000000000000000000, 1.000000000000000000 ) ) ;
#47 = ORIENTED_EDGE ( 'NONE', *, *, #202, .F. ) ;
#48 = CARTESIAN_POINT ( 'NONE',  ( 0.0000000000000000000, 0.1250000000000000000, -4.000000000000000000 ) ) ;
#49 = PLANE ( 'NONE',  #147 ) ;
#50 = DIRECTION ( 'NONE',  ( 0.0000000000000000000, 0.0000000000000000000, -1.000000000000000000 ) ) ;
#51 = DIRECTION ( 'NONE',  ( 1.000000000000000000, -0.0000000000000000000, 0.0000000000000000000 ) ) ;
#52 = CARTESIAN_POINT ( 'NONE',  ( 0.0000000000000000000, 0.1250000000000000000, 0.0000000000000000000 ) ) ;
#53 = PLANE ( 'NONE',  #169 ) ;
#54 = DIRECTION ( 'NONE',  ( 0.0000000000000000000, 0.0000000000000000000, -1.000000000000000000 ) ) ;
#55 = DIRECTION ( 'NONE',  ( 0.0000000000000000000, -1.000000000000000000, -0.0000000000000000000 ) ) ;
#56 = CARTESIAN_POINT ( 'NONE',  ( 0.0000000000000000000, 0.1250000000000000000, 0.0000000000000000000 ) ) ;
#57 = PLANE ( 'NONE',  #146 ) ;
#58 = DIRECTION ( 'NONE',  ( 0.0000000000000000000, 0.0000000000000000000, -1.000000000000000000 ) ) ;
#59 = DIRECTION ( 'NONE',  ( 0.0000000000000000000, -1.000000000000000000, -0.0000000000000000000 ) ) ;
#60 = CARTESIAN_POINT ( 'NONE',  ( 0.0000000000000000000, 0.0000000000000000000, 0.0000000000000000000 ) ) ;
#61 = DIRECTION ( 'NONE',  ( -0.0000000000000000000, -0.0000000000000000000, 1.000000000000000000 ) ) ;
#62 = CARTESIAN_POINT ( 'NONE',  ( 0.0000000000000000000, 0.0000000000000000000, 0.0000000000000000000 ) ) ;
#63 = LINE ( 'NONE', #62, #171 ) ;
#64 = DIRECTION ( 'NONE',  ( -1.000000000000000000, -0.0000000000000000000, -0.0000000000000000000 ) ) ;
#65 = CARTESIAN_POINT ( 'NONE',  ( 0.0000000000000000000, 0.1250000000000000000, -4.000000000000000000 ) ) ;
#66 = LINE ( 'NONE', #65, #167 ) ;
#67 = DIRECTION ( 'NONE',  ( -1.000000000000000000, -0.0000000000000000000, -0.0000000000000000000 ) ) ;
#68 = CARTESIAN_POINT ( 'NONE',  ( 0.0000000000000000000, 0.0000000000000000000, -4.000000000000000000 ) ) ;
#69 = LINE ( 'NONE', #68, #170 ) ;
#70 = DIRECTION ( 'NONE',  ( -0.0000000000000000000, -1.000000000000000000, -0.0000000000000000000 ) ) ;
#71 = CARTESIAN_POINT ( 'NONE',  ( 0.0000000000000000000, 0.1250000000000000000, -4.000000000000000000 ) ) ;
#72 = LINE ( 'NONE', #71, #161 ) ;
#73 = DIRECTION ( 'NONE',  ( -1.365923996832131600E-016, -0.0000000000000000000, -1.000000000000000000 ) ) ;
#74 = CARTESIAN_POINT ( 'NONE',  ( 0.4999999999999994400, 0.1250000000000000000, -4.000000000000000000 ) ) ;
#75 = LINE ( 'NONE', #74, #155 ) ;
#76 = DIRECTION ( 'NONE',  ( -1.365923996832131600E-016, -0.0000000000000000000, -1.000000000000000000 ) ) ;
#77 = CARTESIAN_POINT ( 'NONE',  ( 0.4999999999999994400, 0.0000000000000000000, -4.000000000000000000 ) ) ;
#78 = LINE ( 'NONE', #77, #168 ) ;
#79 = DIRECTION ( 'NONE',  ( -0.0000000000000000000, -1.000000000000000000, -0.0000000000000000000 ) ) ;
#80 = CARTESIAN_POINT ( 'NONE',  ( 0.4999999999999994400, 0.1250000000000000000, -4.000000000000000000 ) ) ;
#81 = LINE ( 'NONE', #80, #156 ) ;
#82 = DIRECTION ( 'NONE',  ( -0.0000000000000000000, -1.000000000000000000, -0.0000000000000000000 ) ) ;
#83 = CARTESIAN_POINT ( 'NONE',  ( 0.0000000000000000000, 0.1250000000000000000, 0.0000000000000000000 ) ) ;
#84 = LINE ( 'NONE', #83, #166 ) ;
#85 = DIRECTION ( 'NONE',  ( 1.000000000000000000, -0.0000000000000000000, -3.061616997868381800E-017 ) ) ;
#86 = CARTESIAN_POINT ( 'NONE',  ( 0.5000000000000000000, 0.1250000000000000000, -1.530808498934190900E-017 ) ) ;
#87 = LINE ( 'NONE', #86, #164 ) ;
#88 = DIRECTION ( 'NONE',  ( 1.000000000000000000, -0.0000000000000000000, -3.061616997868381800E-017 ) ) ;
#89 = CARTESIAN_POINT ( 'NONE',  ( 0.5000000000000000000, 0.0000000000000000000, -1.530808498934190900E-017 ) ) ;
#90 = LINE ( 'NONE', #89, #163 ) ;
#91 = DIRECTION ( 'NONE',  ( -0.0000000000000000000, -0.0000000000000000000, 1.000000000000000000 ) ) ;
#92 = CARTESIAN_POINT ( 'NONE',  ( 0.0000000000000000000, 0.1250000000000000000, 0.0000000000000000000 ) ) ;
#93 = LINE ( 'NONE', #92, #162 ) ;
#94 = PLANE ( 'NONE',  #159 ) ;
#95 = DIRECTION ( 'NONE',  ( -0.0000000000000000000, -1.000000000000000000, -0.0000000000000000000 ) ) ;
#96 = CARTESIAN_POINT ( 'NONE',  ( 0.5000000000000000000, 0.1250000000000000000, -1.530808498934190900E-017 ) ) ;
#97 = LINE ( 'NONE', #96, #157 ) ;
#98 = DIRECTION ( 'NONE',  ( -1.000000000000000000, 0.0000000000000000000, 3.061616997868381800E-017 ) ) ;
#99 = DIRECTION ( 'NONE',  ( -3.061616997868381800E-017, 0.0000000000000000000, -1.000000000000000000 ) ) ;
#100 = CARTESIAN_POINT ( 'NONE',  ( 0.5000000000000000000, 0.1250000000000000000, -1.530808498934190900E-017 ) ) ;
#101 = PLANE ( 'NONE',  #10 ) ;
#102 =( NAMED_UNIT ( * ) SI_UNIT ( $, .STERADIAN. ) SOLID_ANGLE_UNIT ( ) );
#103 =( NAMED_UNIT ( * ) PLANE_ANGLE_UNIT ( ) SI_UNIT ( $, .RADIAN. ) );
#104 =( CONVERSION_BASED_UNIT ( 'INCH', #11 ) LENGTH_UNIT ( ) NAMED_UNIT ( #3 ) );
#105 =( LENGTH_UNIT ( ) NAMED_UNIT ( * ) SI_UNIT ( $, .METRE. ) );
#106 = PRESENTATION_STYLE_ASSIGNMENT (( #107 ) ) ;
#107 = SURFACE_STYLE_USAGE ( .BOTH. , #108 ) ;
#108 = SURFACE_SIDE_STYLE ('',( #109 ) ) ;
#109 = SURFACE_STYLE_FILL_AREA ( #110 ) ;
#110 = FILL_AREA_STYLE ('',( #111 ) ) ;
#111 = FILL_AREA_STYLE_COLOUR ( '', #199 ) ;
#112 = CARTESIAN_POINT ( 'NONE',  ( 0.5000000000000000000, 0.0000000000000000000, -1.530808498934190900E-017 ) ) ;
#113 = CARTESIAN_POINT ( 'NONE',  ( 0.5000000000000000000, 0.1250000000000000000, -1.530808498934190900E-017 ) ) ;
#114 = CARTESIAN_POINT ( 'NONE',  ( 0.4999999999999994400, 0.1250000000000000000, -4.000000000000000000 ) ) ;
#115 = CARTESIAN_POINT ( 'NONE',  ( 0.0000000000000000000, 0.1250000000000000000, -4.000000000000000000 ) ) ;
#116 = CARTESIAN_POINT ( 'NONE',  ( 0.0000000000000000000, 0.1250000000000000000, 0.0000000000000000000 ) ) ;
#117 = CARTESIAN_POINT ( 'NONE',  ( 0.0000000000000000000, 0.0000000000000000000, 0.0000000000000000000 ) ) ;
#118 = CARTESIAN_POINT ( 'NONE',  ( 0.4999999999999994400, 0.0000000000000000000, -4.000000000000000000 ) ) ;
#119 = CARTESIAN_POINT ( 'NONE',  ( 0.0000000000000000000, 0.0000000000000000000, -4.000000000000000000 ) ) ;
#120 = ORIENTED_EDGE ( 'NONE', *, *, #198, .F. ) ;
#121 = ORIENTED_EDGE ( 'NONE', *, *, #201, .F. ) ;
#122 = EDGE_LOOP ( 'NONE', ( #187, #182, #181, #183 ) ) ;
#123 = EDGE_LOOP ( 'NONE', ( #136, #47, #133, #134 ) ) ;
#124 = EDGE_LOOP ( 'NONE', ( #132, #120, #121, #138 ) ) ;
#125 = EDGE_LOOP ( 'NONE', ( #188, #186, #189, #135 ) ) ;
#126 = EDGE_LOOP ( 'NONE', ( #137, #177, #139, #179 ) ) ;
#127 = EDGE_LOOP ( 'NONE', ( #184, #185, #180, #178 ) ) ;
#128 = VERTEX_POINT ( 'NONE', #115 ) ;
#129 = VERTEX_POINT ( 'NONE', #114 ) ;
#130 = VERTEX_POINT ( 'NONE', #113 ) ;
#131 = VERTEX_POINT ( 'NONE', #112 ) ;
#132 = ORIENTED_EDGE ( 'NONE', *, *, #200, .T. ) ;
#133 = ORIENTED_EDGE ( 'NONE', *, *, #204, .F. ) ;
#134 = ORIENTED_EDGE ( 'NONE', *, *, #198, .T. ) ;
#135 = ORIENTED_EDGE ( 'NONE', *, *, #197, .T. ) ;
#136 = ORIENTED_EDGE ( 'NONE', *, *, #203, .T. ) ;
#137 = ORIENTED_EDGE ( 'NONE', *, *, #205, .T. ) ;
#138 = ORIENTED_EDGE ( 'NONE', *, *, #191, .T. ) ;
#139 = ORIENTED_EDGE ( 'NONE', *, *, #192, .F. ) ;
#140 = ADVANCED_BREP_SHAPE_REPRESENTATION ( 'P125D4000', ( #173, #149 ), #14 ) ;
#141 = UNCERTAINTY_MEASURE_WITH_UNIT (LENGTH_MEASURE( 1.000000000000000100E-005 ), #39, 'distance_accuracy_value', 'NONE');
#142 = UNCERTAINTY_MEASURE_WITH_UNIT (LENGTH_MEASURE( 1.000000000000000100E-005 ), #104, 'distance_accuracy_value', 'NONE');
#143 = UNCERTAINTY_MEASURE_WITH_UNIT (LENGTH_MEASURE( 1.000000000000000100E-005 ), #28, 'distance_accuracy_value', 'NONE');
#144 = FACE_OUTER_BOUND ( 'NONE', #127, .T. ) ;
#145 = FACE_OUTER_BOUND ( 'NONE', #124, .T. ) ;
#146 = AXIS2_PLACEMENT_3D ( 'NONE', #56, #55, #54 ) ;
#147 = AXIS2_PLACEMENT_3D ( 'NONE', #48, #46, #45 ) ;
#148 = MECHANICAL_DESIGN_GEOMETRIC_PRESENTATION_REPRESENTATION (  '', ( #150 ), #15 ) ;
#149 = AXIS2_PLACEMENT_3D ( 'NONE', #26, #25, #24 ) ;
#150 = STYLED_ITEM ( 'NONE', ( #21 ), #140 ) ;
#151 = LENGTH_MEASURE_WITH_UNIT ( LENGTH_MEASURE( 0.02539999999999999900 ), #40 );
#152 = LENGTH_MEASURE_WITH_UNIT ( LENGTH_MEASURE( 0.02539999999999999900 ), #31 );
#153 = FACE_OUTER_BOUND ( 'NONE', #126, .T. ) ;
#154 = AXIS2_PLACEMENT_3D ( 'NONE', #43, #42, #41 ) ;
#155 = VECTOR ( 'NONE', #73, 39.37007874015748100 ) ;
#156 = VECTOR ( 'NONE', #79, 39.37007874015748100 ) ;
#157 = VECTOR ( 'NONE', #95, 39.37007874015748100 ) ;
#158 = PRESENTATION_LAYER_ASSIGNMENT (  '', '', ( #150 ) ) ;
#159 = AXIS2_PLACEMENT_3D ( 'NONE', #60, #59, #58 ) ;
#160 = FACE_OUTER_BOUND ( 'NONE', #123, .T. ) ;
#161 = VECTOR ( 'NONE', #70, 39.37007874015748100 ) ;
#162 = VECTOR ( 'NONE', #91, 39.37007874015748100 ) ;
#163 = VECTOR ( 'NONE', #88, 39.37007874015748100 ) ;
#164 = VECTOR ( 'NONE', #85, 39.37007874015748100 ) ;
#165 = PRODUCT_DEFINITION_FORMATION_WITH_SPECIFIED_SOURCE ( 'ANY', '', #2, .NOT_KNOWN. ) ;
#166 = VECTOR ( 'NONE', #82, 39.37007874015748100 ) ;
#167 = VECTOR ( 'NONE', #64, 39.37007874015748100 ) ;
#168 = VECTOR ( 'NONE', #76, 39.37007874015748100 ) ;
#169 = AXIS2_PLACEMENT_3D ( 'NONE', #52, #51, #50 ) ;
#170 = VECTOR ( 'NONE', #67, 39.37007874015748100 ) ;
#171 = VECTOR ( 'NONE', #61, 39.37007874015748100 ) ;
#172 = PRODUCT_DEFINITION_CONTEXT ( 'detailed design', #176, 'design' ) ;
#173 = MANIFOLD_SOLID_BREP ( 'Boss-Extrude1', #9 ) ;
#174 = PRODUCT_DEFINITION_SHAPE ( 'NONE', 'NONE',  #211 ) ;
#175 = APPLICATION_CONTEXT ( 'automotive_design' ) ;
#176 = APPLICATION_CONTEXT ( 'automotive_design' ) ;
#177 = ORIENTED_EDGE ( 'NONE', *, *, #197, .F. ) ;
#178 = ORIENTED_EDGE ( 'NONE', *, *, #192, .T. ) ;
#179 = ORIENTED_EDGE ( 'NONE', *, *, #202, .T. ) ;
#180 = ORIENTED_EDGE ( 'NONE', *, *, #204, .T. ) ;
#181 = ORIENTED_EDGE ( 'NONE', *, *, #203, .F. ) ;
#182 = ORIENTED_EDGE ( 'NONE', *, *, #205, .F. ) ;
#183 = ORIENTED_EDGE ( 'NONE', *, *, #200, .F. ) ;
#184 = ORIENTED_EDGE ( 'NONE', *, *, #196, .T. ) ;
#185 = ORIENTED_EDGE ( 'NONE', *, *, #201, .T. ) ;
#186 = ORIENTED_EDGE ( 'NONE', *, *, #191, .F. ) ;
#187 = ORIENTED_EDGE ( 'NONE', *, *, #194, .F. ) ;
#188 = ORIENTED_EDGE ( 'NONE', *, *, #194, .T. ) ;
#189 = ORIENTED_EDGE ( 'NONE', *, *, #196, .F. ) ;
#190 = ADVANCED_FACE ( 'NONE', ( #6 ), #101, .F. ) ;
#191 = EDGE_CURVE ( 'NONE', #130, #131, #97, .T. ) ;
#192 = EDGE_CURVE ( 'NONE', #128, #22, #93, .T. ) ;
#193 = COLOUR_RGB ( '',0.5686274509803921400, 0.5686274509803921400, 0.5882352941176470800 ) ;
#194 = EDGE_CURVE ( 'NONE', #18, #131, #90, .T. ) ;
#195 = PRODUCT_RELATED_PRODUCT_CATEGORY ( 'part', '', ( #2 ) ) ;
#196 = EDGE_CURVE ( 'NONE', #22, #130, #87, .T. ) ;
#197 = EDGE_CURVE ( 'NONE', #22, #18, #84, .T. ) ;
#198 = EDGE_CURVE ( 'NONE', #129, #17, #81, .T. ) ;
#199 = COLOUR_RGB ( '',0.5686274509803921400, 0.5686274509803921400, 0.5882352941176470800 ) ;
#200 = EDGE_CURVE ( 'NONE', #131, #17, #78, .T. ) ;
#201 = EDGE_CURVE ( 'NONE', #130, #129, #75, .T. ) ;
#202 = EDGE_CURVE ( 'NONE', #128, #16, #72, .T. ) ;
#203 = EDGE_CURVE ( 'NONE', #17, #16, #69, .T. ) ;
#204 = EDGE_CURVE ( 'NONE', #129, #128, #66, .T. ) ;
#205 = EDGE_CURVE ( 'NONE', #16, #18, #63, .T. ) ;
#206 = ADVANCED_FACE ( 'NONE', ( #7 ), #94, .T. ) ;
#207 = ADVANCED_FACE ( 'NONE', ( #144 ), #57, .F. ) ;
#208 = ADVANCED_FACE ( 'NONE', ( #153 ), #53, .F. ) ;
#209 = ADVANCED_FACE ( 'NONE', ( #160 ), #49, .F. ) ;
#210 = ADVANCED_FACE ( 'NONE', ( #145 ), #44, .F. ) ;
#211 = PRODUCT_DEFINITION ( 'UNKNOWN', '', #165, #172 ) ;
ENDSEC;
END-ISO-10303-21;
