ISO-10303-21;
HEADER;
FILE_DESCRIPTION (( 'STEP AP214' ),
    '1' );
FILE_NAME ('P125D6000.step',
    '2012-04-20T21:00:47',
    ( '' ),
    ( '' ),
    'SwSTEP 2.0',
    'SolidWorks 2012',
    '' );
FILE_SCHEMA (( 'AUTOMOTIVE_DESIGN' ));
ENDSEC;

DATA;
#1 = DIMENSIONAL_EXPONENTS ( 1.000000000000000000, 0.0000000000000000000, 0.0000000000000000000, 0.0000000000000000000, 0.0000000000000000000, 0.0000000000000000000, 0.0000000000000000000 ) ;
#2 = PRODUCT ( 'P125D6000', 'P125D6000', '', ( #24 ) ) ;
#3 = DIMENSIONAL_EXPONENTS ( 1.000000000000000000, 0.0000000000000000000, 0.0000000000000000000, 0.0000000000000000000, 0.0000000000000000000, 0.0000000000000000000, 0.0000000000000000000 ) ;
#4 = DIMENSIONAL_EXPONENTS ( 1.000000000000000000, 0.0000000000000000000, 0.0000000000000000000, 0.0000000000000000000, 0.0000000000000000000, 0.0000000000000000000, 0.0000000000000000000 ) ;
#5 =( GEOMETRIC_REPRESENTATION_CONTEXT ( 3 ) GLOBAL_UNCERTAINTY_ASSIGNED_CONTEXT ( ( #153 ) ) GLOBAL_UNIT_ASSIGNED_CONTEXT ( ( #30, #34, #27 ) ) REPRESENTATION_CONTEXT ( 'NONE', 'WORKASPACE' ) );
#6 =( GEOMETRIC_REPRESENTATION_CONTEXT ( 3 ) GLOBAL_UNCERTAINTY_ASSIGNED_CONTEXT ( ( #154 ) ) GLOBAL_UNIT_ASSIGNED_CONTEXT ( ( #22, #16, #28 ) ) REPRESENTATION_CONTEXT ( 'NONE', 'WORKASPACE' ) );
#7 =( GEOMETRIC_REPRESENTATION_CONTEXT ( 3 ) GLOBAL_UNCERTAINTY_ASSIGNED_CONTEXT ( ( #155 ) ) GLOBAL_UNIT_ASSIGNED_CONTEXT ( ( #19, #17, #92 ) ) REPRESENTATION_CONTEXT ( 'NONE', 'WORKASPACE' ) );
#8 = VECTOR ( 'NONE', #89, 39.37007874015748100 ) ;
#9 = VECTOR ( 'NONE', #99, 39.37007874015748100 ) ;
#10 = FACE_OUTER_BOUND ( 'NONE', #129, .T. ) ;
#11 = CLOSED_SHELL ( 'NONE', ( #160, #177, #175, #174, #173, #178 ) ) ;
#12 = VECTOR ( 'NONE', #96, 39.37007874015748100 ) ;
#13 = FACE_OUTER_BOUND ( 'NONE', #127, .T. ) ;
#14 = AXIS2_PLACEMENT_3D ( 'NONE', #95, #94, #93 ) ;
#15 = VECTOR ( 'NONE', #103, 39.37007874015748100 ) ;
#16 =( NAMED_UNIT ( * ) PLANE_ANGLE_UNIT ( ) SI_UNIT ( $, .RADIAN. ) );
#17 =( NAMED_UNIT ( * ) PLANE_ANGLE_UNIT ( ) SI_UNIT ( $, .RADIAN. ) );
#18 =( LENGTH_UNIT ( ) NAMED_UNIT ( * ) SI_UNIT ( $, .METRE. ) );
#19 =( CONVERSION_BASED_UNIT ( 'INCH', #207 ) LENGTH_UNIT ( ) NAMED_UNIT ( #4 ) );
#20 =( LENGTH_UNIT ( ) NAMED_UNIT ( * ) SI_UNIT ( $, .METRE. ) );
#21 = PRESENTATION_STYLE_ASSIGNMENT (( #35 ) ) ;
#22 =( CONVERSION_BASED_UNIT ( 'INCH', #209 ) LENGTH_UNIT ( ) NAMED_UNIT ( #3 ) );
#23 = FILL_AREA_STYLE ('',( #32 ) ) ;
#24 = PRODUCT_CONTEXT ( 'NONE', #210, 'mechanical' ) ;
#25 = APPLICATION_PROTOCOL_DEFINITION ( 'draft international standard', 'automotive_design', 1998, #211 ) ;
#26 =( LENGTH_UNIT ( ) NAMED_UNIT ( * ) SI_UNIT ( $, .METRE. ) );
#27 =( NAMED_UNIT ( * ) SI_UNIT ( $, .STERADIAN. ) SOLID_ANGLE_UNIT ( ) );
#28 =( NAMED_UNIT ( * ) SI_UNIT ( $, .STERADIAN. ) SOLID_ANGLE_UNIT ( ) );
#29 = CARTESIAN_POINT ( 'NONE',  ( 0.0000000000000000000, 0.0000000000000000000, 0.0000000000000000000 ) ) ;
#30 =( CONVERSION_BASED_UNIT ( 'INCH', #184 ) LENGTH_UNIT ( ) NAMED_UNIT ( #1 ) );
#31 = DIRECTION ( 'NONE',  ( 1.000000000000000000, 0.0000000000000000000, 0.0000000000000000000 ) ) ;
#32 = FILL_AREA_STYLE_COLOUR ( '', #176 ) ;
#33 = DIRECTION ( 'NONE',  ( 0.0000000000000000000, 0.0000000000000000000, 1.000000000000000000 ) ) ;
#34 =( NAMED_UNIT ( * ) PLANE_ANGLE_UNIT ( ) SI_UNIT ( $, .RADIAN. ) );
#35 = SURFACE_STYLE_USAGE ( .BOTH. , #42 ) ;
#36 = PRESENTATION_STYLE_ASSIGNMENT (( #37 ) ) ;
#37 = SURFACE_STYLE_USAGE ( .BOTH. , #38 ) ;
#38 = SURFACE_SIDE_STYLE ('',( #39 ) ) ;
#39 = SURFACE_STYLE_FILL_AREA ( #40 ) ;
#40 = FILL_AREA_STYLE ('',( #45 ) ) ;
#41 = SURFACE_STYLE_FILL_AREA ( #23 ) ;
#42 = SURFACE_SIDE_STYLE ('',( #41 ) ) ;
#43 = DIRECTION ( 'NONE',  ( 0.0000000000000000000, -1.000000000000000000, -0.0000000000000000000 ) ) ;
#44 = DIRECTION ( 'NONE',  ( 0.0000000000000000000, 0.0000000000000000000, -1.000000000000000000 ) ) ;
#45 = FILL_AREA_STYLE_COLOUR ( '', #165 ) ;
#46 = DIRECTION ( 'NONE',  ( 1.365923996832131600E-016, 0.0000000000000000000, 1.000000000000000000 ) ) ;
#47 = PLANE ( 'NONE',  #195 ) ;
#48 = SHAPE_DEFINITION_REPRESENTATION ( #179, #156 ) ;
#49 = CARTESIAN_POINT ( 'NONE',  ( 0.0000000000000000000, 0.0000000000000000000, 0.0000000000000000000 ) ) ;
#50 = PLANE ( 'NONE',  #191 ) ;
#51 = DIRECTION ( 'NONE',  ( -1.000000000000000000, 0.0000000000000000000, 1.365923996832131600E-016 ) ) ;
#52 = CARTESIAN_POINT ( 'NONE',  ( 0.4999999999999991700, 0.1250000000000000000, -6.000000000000000900 ) ) ;
#53 = CARTESIAN_POINT ( 'NONE',  ( 0.0000000000000000000, 0.1250000000000000000, -6.000000000000000900 ) ) ;
#54 = DIRECTION ( 'NONE',  ( 0.0000000000000000000, 0.0000000000000000000, 1.000000000000000000 ) ) ;
#55 = DIRECTION ( 'NONE',  ( 1.000000000000000000, 0.0000000000000000000, -0.0000000000000000000 ) ) ;
#56 = PLANE ( 'NONE',  #182 ) ;
#57 = DIRECTION ( 'NONE',  ( 0.0000000000000000000, 0.0000000000000000000, -1.000000000000000000 ) ) ;
#58 = DIRECTION ( 'NONE',  ( 1.000000000000000000, -0.0000000000000000000, 0.0000000000000000000 ) ) ;
#59 = CARTESIAN_POINT ( 'NONE',  ( 0.0000000000000000000, 0.1250000000000000000, 0.0000000000000000000 ) ) ;
#60 = PLANE ( 'NONE',  #199 ) ;
#61 = DIRECTION ( 'NONE',  ( 0.0000000000000000000, 0.0000000000000000000, -1.000000000000000000 ) ) ;
#62 = DIRECTION ( 'NONE',  ( 0.0000000000000000000, -1.000000000000000000, -0.0000000000000000000 ) ) ;
#63 = CARTESIAN_POINT ( 'NONE',  ( 0.0000000000000000000, 0.1250000000000000000, 0.0000000000000000000 ) ) ;
#64 = DIRECTION ( 'NONE',  ( -0.0000000000000000000, -0.0000000000000000000, 1.000000000000000000 ) ) ;
#65 = CARTESIAN_POINT ( 'NONE',  ( 0.0000000000000000000, 0.1250000000000000000, 0.0000000000000000000 ) ) ;
#66 = LINE ( 'NONE', #65, #201 ) ;
#67 = DIRECTION ( 'NONE',  ( -0.0000000000000000000, -0.0000000000000000000, 1.000000000000000000 ) ) ;
#68 = CARTESIAN_POINT ( 'NONE',  ( 0.0000000000000000000, 0.0000000000000000000, 0.0000000000000000000 ) ) ;
#69 = LINE ( 'NONE', #68, #196 ) ;
#70 = DIRECTION ( 'NONE',  ( -1.000000000000000000, -0.0000000000000000000, -0.0000000000000000000 ) ) ;
#71 = CARTESIAN_POINT ( 'NONE',  ( 0.0000000000000000000, 0.1250000000000000000, -6.000000000000000900 ) ) ;
#72 = LINE ( 'NONE', #71, #205 ) ;
#73 = DIRECTION ( 'NONE',  ( -1.000000000000000000, -0.0000000000000000000, -0.0000000000000000000 ) ) ;
#74 = CARTESIAN_POINT ( 'NONE',  ( 0.0000000000000000000, 0.0000000000000000000, -6.000000000000000900 ) ) ;
#75 = LINE ( 'NONE', #74, #202 ) ;
#76 = DIRECTION ( 'NONE',  ( -0.0000000000000000000, -1.000000000000000000, -0.0000000000000000000 ) ) ;
#77 = CARTESIAN_POINT ( 'NONE',  ( 0.0000000000000000000, 0.1250000000000000000, -6.000000000000000900 ) ) ;
#78 = LINE ( 'NONE', #77, #200 ) ;
#79 = DIRECTION ( 'NONE',  ( -1.365923996832131600E-016, -0.0000000000000000000, -1.000000000000000000 ) ) ;
#80 = CARTESIAN_POINT ( 'NONE',  ( 0.4999999999999991700, 0.1250000000000000000, -6.000000000000000900 ) ) ;
#81 = LINE ( 'NONE', #80, #204 ) ;
#82 = DIRECTION ( 'NONE',  ( -1.365923996832131600E-016, -0.0000000000000000000, -1.000000000000000000 ) ) ;
#83 = CARTESIAN_POINT ( 'NONE',  ( 0.4999999999999991700, 0.0000000000000000000, -6.000000000000000900 ) ) ;
#84 = LINE ( 'NONE', #83, #203 ) ;
#85 = DIRECTION ( 'NONE',  ( -0.0000000000000000000, -1.000000000000000000, -0.0000000000000000000 ) ) ;
#86 = CARTESIAN_POINT ( 'NONE',  ( 0.4999999999999991700, 0.1250000000000000000, -6.000000000000000900 ) ) ;
#87 = LINE ( 'NONE', #86, #187 ) ;
#88 = PLANE ( 'NONE',  #206 ) ;
#89 = DIRECTION ( 'NONE',  ( -0.0000000000000000000, -1.000000000000000000, -0.0000000000000000000 ) ) ;
#90 = CARTESIAN_POINT ( 'NONE',  ( 0.0000000000000000000, 0.1250000000000000000, 0.0000000000000000000 ) ) ;
#91 = LINE ( 'NONE', #90, #8 ) ;
#92 =( NAMED_UNIT ( * ) SI_UNIT ( $, .STERADIAN. ) SOLID_ANGLE_UNIT ( ) );
#93 = DIRECTION ( 'NONE',  ( -1.000000000000000000, 0.0000000000000000000, 3.061616997868381800E-017 ) ) ;
#94 = DIRECTION ( 'NONE',  ( -3.061616997868381800E-017, 0.0000000000000000000, -1.000000000000000000 ) ) ;
#95 = CARTESIAN_POINT ( 'NONE',  ( 0.5000000000000000000, 0.1250000000000000000, -1.530808498934190900E-017 ) ) ;
#96 = DIRECTION ( 'NONE',  ( 1.000000000000000000, -0.0000000000000000000, -3.061616997868381800E-017 ) ) ;
#97 = CARTESIAN_POINT ( 'NONE',  ( 0.5000000000000000000, 0.1250000000000000000, -1.530808498934190900E-017 ) ) ;
#98 = LINE ( 'NONE', #97, #12 ) ;
#99 = DIRECTION ( 'NONE',  ( -0.0000000000000000000, -1.000000000000000000, -0.0000000000000000000 ) ) ;
#100 = CARTESIAN_POINT ( 'NONE',  ( 0.5000000000000000000, 0.1250000000000000000, -1.530808498934190900E-017 ) ) ;
#101 = LINE ( 'NONE', #100, #9 ) ;
#102 = PLANE ( 'NONE',  #14 ) ;
#103 = DIRECTION ( 'NONE',  ( 1.000000000000000000, -0.0000000000000000000, -3.061616997868381800E-017 ) ) ;
#104 = CARTESIAN_POINT ( 'NONE',  ( 0.5000000000000000000, 0.0000000000000000000, -1.530808498934190900E-017 ) ) ;
#105 = LINE ( 'NONE', #104, #15 ) ;
#106 = CARTESIAN_POINT ( 'NONE',  ( 0.5000000000000000000, 0.0000000000000000000, -1.530808498934190900E-017 ) ) ;
#107 = CARTESIAN_POINT ( 'NONE',  ( 0.0000000000000000000, 0.1250000000000000000, 0.0000000000000000000 ) ) ;
#108 = CARTESIAN_POINT ( 'NONE',  ( 0.5000000000000000000, 0.1250000000000000000, -1.530808498934190900E-017 ) ) ;
#109 = CARTESIAN_POINT ( 'NONE',  ( 0.0000000000000000000, 0.1250000000000000000, -6.000000000000000900 ) ) ;
#110 = CARTESIAN_POINT ( 'NONE',  ( 0.4999999999999991700, 0.0000000000000000000, -6.000000000000000900 ) ) ;
#111 = CARTESIAN_POINT ( 'NONE',  ( 0.0000000000000000000, 0.0000000000000000000, 0.0000000000000000000 ) ) ;
#112 = CARTESIAN_POINT ( 'NONE',  ( 0.0000000000000000000, 0.0000000000000000000, -6.000000000000000900 ) ) ;
#113 = CARTESIAN_POINT ( 'NONE',  ( 0.4999999999999991700, 0.1250000000000000000, -6.000000000000000900 ) ) ;
#114 = ORIENTED_EDGE ( 'NONE', *, *, #162, .F. ) ;
#115 = ORIENTED_EDGE ( 'NONE', *, *, #164, .F. ) ;
#116 = VERTEX_POINT ( 'NONE', #113 ) ;
#117 = VERTEX_POINT ( 'NONE', #112 ) ;
#118 = APPLICATION_PROTOCOL_DEFINITION ( 'draft international standard', 'automotive_design', 1998, #210 ) ;
#119 = VERTEX_POINT ( 'NONE', #111 ) ;
#120 = VERTEX_POINT ( 'NONE', #110 ) ;
#121 = VERTEX_POINT ( 'NONE', #109 ) ;
#122 = VERTEX_POINT ( 'NONE', #108 ) ;
#123 = VERTEX_POINT ( 'NONE', #107 ) ;
#124 = VERTEX_POINT ( 'NONE', #106 ) ;
#125 = EDGE_LOOP ( 'NONE', ( #148, #114, #115, #147 ) ) ;
#126 = EDGE_LOOP ( 'NONE', ( #146, #144, #145, #143 ) ) ;
#127 = EDGE_LOOP ( 'NONE', ( #152, #150, #151, #149 ) ) ;
#128 = EDGE_LOOP ( 'NONE', ( #133, #132, #131, #134 ) ) ;
#129 = EDGE_LOOP ( 'NONE', ( #137, #136, #135, #139 ) ) ;
#130 = EDGE_LOOP ( 'NONE', ( #141, #140, #142, #138 ) ) ;
#131 = ORIENTED_EDGE ( 'NONE', *, *, #167, .F. ) ;
#132 = ORIENTED_EDGE ( 'NONE', *, *, #170, .F. ) ;
#133 = ORIENTED_EDGE ( 'NONE', *, *, #157, .F. ) ;
#134 = ORIENTED_EDGE ( 'NONE', *, *, #163, .F. ) ;
#135 = ORIENTED_EDGE ( 'NONE', *, *, #168, .T. ) ;
#136 = ORIENTED_EDGE ( 'NONE', *, *, #164, .T. ) ;
#137 = ORIENTED_EDGE ( 'NONE', *, *, #159, .T. ) ;
#138 = ORIENTED_EDGE ( 'NONE', *, *, #166, .T. ) ;
#139 = ORIENTED_EDGE ( 'NONE', *, *, #172, .T. ) ;
#140 = ORIENTED_EDGE ( 'NONE', *, *, #161, .F. ) ;
#141 = ORIENTED_EDGE ( 'NONE', *, *, #170, .T. ) ;
#142 = ORIENTED_EDGE ( 'NONE', *, *, #172, .F. ) ;
#143 = ORIENTED_EDGE ( 'NONE', *, *, #162, .T. ) ;
#144 = ORIENTED_EDGE ( 'NONE', *, *, #166, .F. ) ;
#145 = ORIENTED_EDGE ( 'NONE', *, *, #168, .F. ) ;
#146 = ORIENTED_EDGE ( 'NONE', *, *, #167, .T. ) ;
#147 = ORIENTED_EDGE ( 'NONE', *, *, #158, .T. ) ;
#148 = ORIENTED_EDGE ( 'NONE', *, *, #163, .T. ) ;
#149 = ORIENTED_EDGE ( 'NONE', *, *, #161, .T. ) ;
#150 = ORIENTED_EDGE ( 'NONE', *, *, #158, .F. ) ;
#151 = ORIENTED_EDGE ( 'NONE', *, *, #159, .F. ) ;
#152 = ORIENTED_EDGE ( 'NONE', *, *, #157, .T. ) ;
#153 = UNCERTAINTY_MEASURE_WITH_UNIT (LENGTH_MEASURE( 1.000000000000000100E-005 ), #30, 'distance_accuracy_value', 'NONE');
#154 = UNCERTAINTY_MEASURE_WITH_UNIT (LENGTH_MEASURE( 1.000000000000000100E-005 ), #22, 'distance_accuracy_value', 'NONE');
#155 = UNCERTAINTY_MEASURE_WITH_UNIT (LENGTH_MEASURE( 1.000000000000000100E-005 ), #19, 'distance_accuracy_value', 'NONE');
#156 = ADVANCED_BREP_SHAPE_REPRESENTATION ( 'P125D6000', ( #181, #189 ), #6 ) ;
#157 = EDGE_CURVE ( 'NONE', #119, #124, #105, .T. ) ;
#158 = EDGE_CURVE ( 'NONE', #122, #124, #101, .T. ) ;
#159 = EDGE_CURVE ( 'NONE', #123, #122, #98, .T. ) ;
#160 = ADVANCED_FACE ( 'NONE', ( #13 ), #102, .F. ) ;
#161 = EDGE_CURVE ( 'NONE', #123, #119, #91, .T. ) ;
#162 = EDGE_CURVE ( 'NONE', #116, #120, #87, .T. ) ;
#163 = EDGE_CURVE ( 'NONE', #124, #120, #84, .T. ) ;
#164 = EDGE_CURVE ( 'NONE', #122, #116, #81, .T. ) ;
#165 = COLOUR_RGB ( '',0.5686274509803921400, 0.5686274509803921400, 0.5882352941176470800 ) ;
#166 = EDGE_CURVE ( 'NONE', #121, #117, #78, .T. ) ;
#167 = EDGE_CURVE ( 'NONE', #120, #117, #75, .T. ) ;
#168 = EDGE_CURVE ( 'NONE', #116, #121, #72, .T. ) ;
#169 = PRODUCT_RELATED_PRODUCT_CATEGORY ( 'part', '', ( #2 ) ) ;
#170 = EDGE_CURVE ( 'NONE', #117, #119, #69, .T. ) ;
#171 = PRODUCT_DEFINITION ( 'UNKNOWN', '', #186, #180 ) ;
#172 = EDGE_CURVE ( 'NONE', #121, #123, #66, .T. ) ;
#173 = ADVANCED_FACE ( 'NONE', ( #10 ), #88, .F. ) ;
#174 = ADVANCED_FACE ( 'NONE', ( #198 ), #60, .F. ) ;
#175 = ADVANCED_FACE ( 'NONE', ( #197 ), #56, .F. ) ;
#176 = COLOUR_RGB ( '',0.5686274509803921400, 0.5686274509803921400, 0.5882352941176470800 ) ;
#177 = ADVANCED_FACE ( 'NONE', ( #185 ), #50, .F. ) ;
#178 = ADVANCED_FACE ( 'NONE', ( #183 ), #47, .T. ) ;
#179 = PRODUCT_DEFINITION_SHAPE ( 'NONE', 'NONE',  #171 ) ;
#180 = PRODUCT_DEFINITION_CONTEXT ( 'detailed design', #211, 'design' ) ;
#181 = MANIFOLD_SOLID_BREP ( 'Boss-Extrude1', #11 ) ;
#182 = AXIS2_PLACEMENT_3D ( 'NONE', #53, #54, #55 ) ;
#183 = FACE_OUTER_BOUND ( 'NONE', #128, .T. ) ;
#184 = LENGTH_MEASURE_WITH_UNIT ( LENGTH_MEASURE( 0.02539999999999999900 ), #18 );
#185 = FACE_OUTER_BOUND ( 'NONE', #125, .T. ) ;
#186 = PRODUCT_DEFINITION_FORMATION_WITH_SPECIFIED_SOURCE ( 'ANY', '', #2, .NOT_KNOWN. ) ;
#187 = VECTOR ( 'NONE', #85, 39.37007874015748100 ) ;
#188 = STYLED_ITEM ( 'NONE', ( #21 ), #156 ) ;
#189 = AXIS2_PLACEMENT_3D ( 'NONE', #29, #33, #31 ) ;
#190 = MECHANICAL_DESIGN_GEOMETRIC_PRESENTATION_REPRESENTATION (  '', ( #188 ), #7 ) ;
#191 = AXIS2_PLACEMENT_3D ( 'NONE', #52, #51, #46 ) ;
#192 = MECHANICAL_DESIGN_GEOMETRIC_PRESENTATION_REPRESENTATION (  '', ( #193 ), #5 ) ;
#193 = STYLED_ITEM ( 'NONE', ( #36 ), #181 ) ;
#194 = PRESENTATION_LAYER_ASSIGNMENT (  '', '', ( #193 ) ) ;
#195 = AXIS2_PLACEMENT_3D ( 'NONE', #49, #43, #44 ) ;
#196 = VECTOR ( 'NONE', #67, 39.37007874015748100 ) ;
#197 = FACE_OUTER_BOUND ( 'NONE', #126, .T. ) ;
#198 = FACE_OUTER_BOUND ( 'NONE', #130, .T. ) ;
#199 = AXIS2_PLACEMENT_3D ( 'NONE', #59, #58, #57 ) ;
#200 = VECTOR ( 'NONE', #76, 39.37007874015748100 ) ;
#201 = VECTOR ( 'NONE', #64, 39.37007874015748100 ) ;
#202 = VECTOR ( 'NONE', #73, 39.37007874015748100 ) ;
#203 = VECTOR ( 'NONE', #82, 39.37007874015748100 ) ;
#204 = VECTOR ( 'NONE', #79, 39.37007874015748100 ) ;
#205 = VECTOR ( 'NONE', #70, 39.37007874015748100 ) ;
#206 = AXIS2_PLACEMENT_3D ( 'NONE', #63, #62, #61 ) ;
#207 = LENGTH_MEASURE_WITH_UNIT ( LENGTH_MEASURE( 0.02539999999999999900 ), #20 );
#208 = PRESENTATION_LAYER_ASSIGNMENT (  '', '', ( #188 ) ) ;
#209 = LENGTH_MEASURE_WITH_UNIT ( LENGTH_MEASURE( 0.02539999999999999900 ), #26 );
#210 = APPLICATION_CONTEXT ( 'automotive_design' ) ;
#211 = APPLICATION_CONTEXT ( 'automotive_design' ) ;
ENDSEC;
END-ISO-10303-21;
