ISO-10303-21;
HEADER;
FILE_DESCRIPTION (( 'STEP AP214' ),
    '1' );
FILE_NAME ('P125DP.step',
    '2012-04-20T21:00:59',
    ( '' ),
    ( '' ),
    'SwSTEP 2.0',
    'SolidWorks 2012',
    '' );
FILE_SCHEMA (( 'AUTOMOTIVE_DESIGN' ));
ENDSEC;

DATA;
#1 = DIMENSIONAL_EXPONENTS ( 1.000000000000000000, 0.0000000000000000000, 0.0000000000000000000, 0.0000000000000000000, 0.0000000000000000000, 0.0000000000000000000, 0.0000000000000000000 ) ;
#2 = DIMENSIONAL_EXPONENTS ( 1.000000000000000000, 0.0000000000000000000, 0.0000000000000000000, 0.0000000000000000000, 0.0000000000000000000, 0.0000000000000000000, 0.0000000000000000000 ) ;
#3 = PRODUCT ( 'P125DP', 'P125DP', '', ( #19 ) ) ;
#4 = DIMENSIONAL_EXPONENTS ( 1.000000000000000000, 0.0000000000000000000, 0.0000000000000000000, 0.0000000000000000000, 0.0000000000000000000, 0.0000000000000000000, 0.0000000000000000000 ) ;
#5 = ADVANCED_BREP_SHAPE_REPRESENTATION ( 'P125DP', ( #176, #152 ), #210 ) ;
#6 = UNCERTAINTY_MEASURE_WITH_UNIT (LENGTH_MEASURE( 1.000000000000000100E-005 ), #186, 'distance_accuracy_value', 'NONE');
#7 = UNCERTAINTY_MEASURE_WITH_UNIT (LENGTH_MEASURE( 1.000000000000000100E-005 ), #92, 'distance_accuracy_value', 'NONE');
#8 = UNCERTAINTY_MEASURE_WITH_UNIT (LENGTH_MEASURE( 1.000000000000000100E-005 ), #28, 'distance_accuracy_value', 'NONE');
#9 = APPLICATION_CONTEXT ( 'automotive_design' ) ;
#10 = APPLICATION_CONTEXT ( 'automotive_design' ) ;
#11 = FACE_OUTER_BOUND ( 'NONE', #134, .T. ) ;
#12 = PRESENTATION_LAYER_ASSIGNMENT (  '', '', ( #14 ) ) ;
#13 = VECTOR ( 'NONE', #87, 39.37007874015748100 ) ;
#14 = STYLED_ITEM ( 'NONE', ( #94 ), #176 ) ;
#15 = LENGTH_MEASURE_WITH_UNIT ( LENGTH_MEASURE( 0.02539999999999999900 ), #93 );
#16 = CLOSED_SHELL ( 'NONE', ( #206, #205, #207, #198, #197, #199 ) ) ;
#17 = MECHANICAL_DESIGN_GEOMETRIC_PRESENTATION_REPRESENTATION (  '', ( #14 ), #209 ) ;
#18 = APPLICATION_PROTOCOL_DEFINITION ( 'draft international standard', 'automotive_design', 1998, #10 ) ;
#19 = PRODUCT_CONTEXT ( 'NONE', #9, 'mechanical' ) ;
#20 = PRESENTATION_STYLE_ASSIGNMENT (( #21 ) ) ;
#21 = SURFACE_STYLE_USAGE ( .BOTH. , #22 ) ;
#22 = SURFACE_SIDE_STYLE ('',( #23 ) ) ;
#23 = SURFACE_STYLE_FILL_AREA ( #24 ) ;
#24 = FILL_AREA_STYLE ('',( #25 ) ) ;
#25 = FILL_AREA_STYLE_COLOUR ( '', #189 ) ;
#26 =( NAMED_UNIT ( * ) SI_UNIT ( $, .STERADIAN. ) SOLID_ANGLE_UNIT ( ) );
#27 =( NAMED_UNIT ( * ) PLANE_ANGLE_UNIT ( ) SI_UNIT ( $, .RADIAN. ) );
#28 =( CONVERSION_BASED_UNIT ( 'INCH', #146 ) LENGTH_UNIT ( ) NAMED_UNIT ( #4 ) );
#29 =( LENGTH_UNIT ( ) NAMED_UNIT ( * ) SI_UNIT ( $, .METRE. ) );
#30 = DIRECTION ( 'NONE',  ( 1.000000000000000000, 0.0000000000000000000, -0.0000000000000000000 ) ) ;
#31 = DIRECTION ( 'NONE',  ( 0.0000000000000000000, 0.0000000000000000000, 1.000000000000000000 ) ) ;
#32 = CARTESIAN_POINT ( 'NONE',  ( 0.0000000000000000000, 0.1250000000000000000, -2.000000000000000000 ) ) ;
#33 = PLANE ( 'NONE',  #172 ) ;
#34 = DIRECTION ( 'NONE',  ( -1.000000000000000000, 0.0000000000000000000, -1.224646799147353200E-016 ) ) ;
#35 = DIRECTION ( 'NONE',  ( 1.224646799147353200E-016, 0.0000000000000000000, -1.000000000000000000 ) ) ;
#36 = CARTESIAN_POINT ( 'NONE',  ( 0.5000000000000000000, 0.1250000000000000000, 6.123233995736766000E-017 ) ) ;
#37 = PLANE ( 'NONE',  #155 ) ;
#38 = DIRECTION ( 'NONE',  ( 1.024442997624098800E-016, 0.0000000000000000000, 1.000000000000000000 ) ) ;
#39 = DIRECTION ( 'NONE',  ( -1.000000000000000000, 0.0000000000000000000, 1.024442997624098800E-016 ) ) ;
#40 = CARTESIAN_POINT ( 'NONE',  ( 0.4999999999999997800, 0.1250000000000000000, -2.000000000000000000 ) ) ;
#41 = DIRECTION ( 'NONE',  ( -1.024442997624098800E-016, -0.0000000000000000000, -1.000000000000000000 ) ) ;
#42 = CARTESIAN_POINT ( 'NONE',  ( 0.4999999999999997800, 0.1250000000000000000, -2.000000000000000000 ) ) ;
#43 = LINE ( 'NONE', #42, #153 ) ;
#44 = DIRECTION ( 'NONE',  ( -0.0000000000000000000, -1.000000000000000000, -0.0000000000000000000 ) ) ;
#45 = CARTESIAN_POINT ( 'NONE',  ( 0.0000000000000000000, 0.1250000000000000000, -2.000000000000000000 ) ) ;
#46 = LINE ( 'NONE', #45, #166 ) ;
#47 = DIRECTION ( 'NONE',  ( -1.000000000000000000, -0.0000000000000000000, -0.0000000000000000000 ) ) ;
#48 = CARTESIAN_POINT ( 'NONE',  ( 0.0000000000000000000, 0.0000000000000000000, -2.000000000000000000 ) ) ;
#49 = LINE ( 'NONE', #48, #156 ) ;
#50 = DIRECTION ( 'NONE',  ( -1.000000000000000000, -0.0000000000000000000, -0.0000000000000000000 ) ) ;
#51 = CARTESIAN_POINT ( 'NONE',  ( 0.0000000000000000000, 0.1250000000000000000, -2.000000000000000000 ) ) ;
#52 = LINE ( 'NONE', #51, #162 ) ;
#53 = PLANE ( 'NONE',  #171 ) ;
#54 = DIRECTION ( 'NONE',  ( -0.0000000000000000000, -0.0000000000000000000, 1.000000000000000000 ) ) ;
#55 = CARTESIAN_POINT ( 'NONE',  ( 0.0000000000000000000, 0.0000000000000000000, 0.0000000000000000000 ) ) ;
#56 = LINE ( 'NONE', #55, #170 ) ;
#57 = DIRECTION ( 'NONE',  ( 0.0000000000000000000, 0.0000000000000000000, -1.000000000000000000 ) ) ;
#58 = DIRECTION ( 'NONE',  ( 0.0000000000000000000, -1.000000000000000000, 0.0000000000000000000 ) ) ;
#59 = CARTESIAN_POINT ( 'NONE',  ( 0.0000000000000000000, 0.0000000000000000000, 0.0000000000000000000 ) ) ;
#60 = PLANE ( 'NONE',  #169 ) ;
#61 = DIRECTION ( 'NONE',  ( 0.0000000000000000000, 0.0000000000000000000, -1.000000000000000000 ) ) ;
#62 = DIRECTION ( 'NONE',  ( 1.000000000000000000, -0.0000000000000000000, 0.0000000000000000000 ) ) ;
#63 = CARTESIAN_POINT ( 'NONE',  ( 0.0000000000000000000, 0.1250000000000000000, 0.0000000000000000000 ) ) ;
#64 = PLANE ( 'NONE',  #164 ) ;
#65 = DIRECTION ( 'NONE',  ( 0.0000000000000000000, 0.0000000000000000000, -1.000000000000000000 ) ) ;
#66 = DIRECTION ( 'NONE',  ( 0.0000000000000000000, -1.000000000000000000, 0.0000000000000000000 ) ) ;
#67 = CARTESIAN_POINT ( 'NONE',  ( 0.0000000000000000000, 0.1250000000000000000, 0.0000000000000000000 ) ) ;
#68 = DIRECTION ( 'NONE',  ( 1.000000000000000000, -0.0000000000000000000, 1.224646799147353200E-016 ) ) ;
#69 = CARTESIAN_POINT ( 'NONE',  ( 0.5000000000000000000, 0.1250000000000000000, 6.123233995736766000E-017 ) ) ;
#70 = LINE ( 'NONE', #69, #163 ) ;
#71 = DIRECTION ( 'NONE',  ( -0.0000000000000000000, -1.000000000000000000, -0.0000000000000000000 ) ) ;
#72 = CARTESIAN_POINT ( 'NONE',  ( 0.0000000000000000000, 0.1250000000000000000, 0.0000000000000000000 ) ) ;
#73 = LINE ( 'NONE', #72, #158 ) ;
#74 = DIRECTION ( 'NONE',  ( -0.0000000000000000000, -1.000000000000000000, -0.0000000000000000000 ) ) ;
#75 = CARTESIAN_POINT ( 'NONE',  ( 0.4999999999999997800, 0.1250000000000000000, -2.000000000000000000 ) ) ;
#76 = LINE ( 'NONE', #75, #167 ) ;
#77 = DIRECTION ( 'NONE',  ( -1.024442997624098800E-016, -0.0000000000000000000, -1.000000000000000000 ) ) ;
#78 = CARTESIAN_POINT ( 'NONE',  ( 0.4999999999999997800, 0.0000000000000000000, -2.000000000000000000 ) ) ;
#79 = LINE ( 'NONE', #78, #157 ) ;
#80 = DIRECTION ( 'NONE',  ( -0.0000000000000000000, -1.000000000000000000, -0.0000000000000000000 ) ) ;
#81 = CARTESIAN_POINT ( 'NONE',  ( 0.5000000000000000000, 0.1250000000000000000, 6.123233995736766000E-017 ) ) ;
#82 = LINE ( 'NONE', #81, #148 ) ;
#83 = DIRECTION ( 'NONE',  ( 1.000000000000000000, -0.0000000000000000000, 1.224646799147353200E-016 ) ) ;
#84 = CARTESIAN_POINT ( 'NONE',  ( 0.5000000000000000000, 0.0000000000000000000, 6.123233995736766000E-017 ) ) ;
#85 = LINE ( 'NONE', #84, #173 ) ;
#86 = PLANE ( 'NONE',  #161 ) ;
#87 = DIRECTION ( 'NONE',  ( -0.0000000000000000000, -0.0000000000000000000, 1.000000000000000000 ) ) ;
#88 = CARTESIAN_POINT ( 'NONE',  ( 0.0000000000000000000, 0.1250000000000000000, 0.0000000000000000000 ) ) ;
#89 = LINE ( 'NONE', #88, #13 ) ;
#90 =( NAMED_UNIT ( * ) SI_UNIT ( $, .STERADIAN. ) SOLID_ANGLE_UNIT ( ) );
#91 =( NAMED_UNIT ( * ) PLANE_ANGLE_UNIT ( ) SI_UNIT ( $, .RADIAN. ) );
#92 =( CONVERSION_BASED_UNIT ( 'INCH', #15 ) LENGTH_UNIT ( ) NAMED_UNIT ( #2 ) );
#93 =( LENGTH_UNIT ( ) NAMED_UNIT ( * ) SI_UNIT ( $, .METRE. ) );
#94 = PRESENTATION_STYLE_ASSIGNMENT (( #95 ) ) ;
#95 = SURFACE_STYLE_USAGE ( .BOTH. , #96 ) ;
#96 = SURFACE_SIDE_STYLE ('',( #97 ) ) ;
#97 = SURFACE_STYLE_FILL_AREA ( #98 ) ;
#98 = FILL_AREA_STYLE ('',( #99 ) ) ;
#99 = FILL_AREA_STYLE_COLOUR ( '', #188 ) ;
#100 = CARTESIAN_POINT ( 'NONE',  ( 0.5000000000000000000, 0.0000000000000000000, 6.123233995736766000E-017 ) ) ;
#101 = CARTESIAN_POINT ( 'NONE',  ( 0.0000000000000000000, 0.0000000000000000000, 0.0000000000000000000 ) ) ;
#102 = CARTESIAN_POINT ( 'NONE',  ( 0.5000000000000000000, 0.1250000000000000000, 6.123233995736766000E-017 ) ) ;
#103 = CARTESIAN_POINT ( 'NONE',  ( 0.4999999999999997800, 0.1250000000000000000, -2.000000000000000000 ) ) ;
#104 = CARTESIAN_POINT ( 'NONE',  ( 0.4999999999999997800, 0.0000000000000000000, -2.000000000000000000 ) ) ;
#105 = CARTESIAN_POINT ( 'NONE',  ( 0.0000000000000000000, 0.1250000000000000000, 0.0000000000000000000 ) ) ;
#106 = CARTESIAN_POINT ( 'NONE',  ( 0.0000000000000000000, 0.0000000000000000000, -2.000000000000000000 ) ) ;
#107 = CARTESIAN_POINT ( 'NONE',  ( 0.0000000000000000000, 0.1250000000000000000, -2.000000000000000000 ) ) ;
#108 = ORIENTED_EDGE ( 'NONE', *, *, #191, .T. ) ;
#109 = ORIENTED_EDGE ( 'NONE', *, *, #194, .F. ) ;
#110 = ORIENTED_EDGE ( 'NONE', *, *, #204, .F. ) ;
#111 = ORIENTED_EDGE ( 'NONE', *, *, #193, .T. ) ;
#112 = ORIENTED_EDGE ( 'NONE', *, *, #195, .T. ) ;
#113 = ORIENTED_EDGE ( 'NONE', *, *, #192, .F. ) ;
#114 = ORIENTED_EDGE ( 'NONE', *, *, #196, .F. ) ;
#115 = ORIENTED_EDGE ( 'NONE', *, *, #200, .T. ) ;
#116 = ORIENTED_EDGE ( 'NONE', *, *, #190, .F. ) ;
#117 = ORIENTED_EDGE ( 'NONE', *, *, #194, .T. ) ;
#118 = ORIENTED_EDGE ( 'NONE', *, *, #203, .F. ) ;
#119 = ORIENTED_EDGE ( 'NONE', *, *, #201, .F. ) ;
#120 = ORIENTED_EDGE ( 'NONE', *, *, #202, .T. ) ;
#121 = ORIENTED_EDGE ( 'NONE', *, *, #192, .T. ) ;
#122 = VERTEX_POINT ( 'NONE', #107 ) ;
#123 = VERTEX_POINT ( 'NONE', #106 ) ;
#124 = VERTEX_POINT ( 'NONE', #105 ) ;
#125 = VERTEX_POINT ( 'NONE', #104 ) ;
#126 = VERTEX_POINT ( 'NONE', #103 ) ;
#127 = VERTEX_POINT ( 'NONE', #102 ) ;
#128 = VERTEX_POINT ( 'NONE', #101 ) ;
#129 = VERTEX_POINT ( 'NONE', #100 ) ;
#130 = EDGE_LOOP ( 'NONE', ( #111, #109, #110, #121 ) ) ;
#131 = EDGE_LOOP ( 'NONE', ( #120, #118, #119, #117 ) ) ;
#132 = EDGE_LOOP ( 'NONE', ( #108, #113, #114, #112 ) ) ;
#133 = EDGE_LOOP ( 'NONE', ( #115, #145, #116, #143 ) ) ;
#134 = EDGE_LOOP ( 'NONE', ( #142, #141, #140, #144 ) ) ;
#135 = EDGE_LOOP ( 'NONE', ( #138, #137, #136, #139 ) ) ;
#136 = ORIENTED_EDGE ( 'NONE', *, *, #202, .F. ) ;
#137 = ORIENTED_EDGE ( 'NONE', *, *, #200, .F. ) ;
#138 = ORIENTED_EDGE ( 'NONE', *, *, #191, .F. ) ;
#139 = ORIENTED_EDGE ( 'NONE', *, *, #193, .F. ) ;
#140 = ORIENTED_EDGE ( 'NONE', *, *, #201, .T. ) ;
#141 = ORIENTED_EDGE ( 'NONE', *, *, #204, .T. ) ;
#142 = ORIENTED_EDGE ( 'NONE', *, *, #196, .T. ) ;
#143 = ORIENTED_EDGE ( 'NONE', *, *, #203, .T. ) ;
#144 = ORIENTED_EDGE ( 'NONE', *, *, #190, .T. ) ;
#145 = ORIENTED_EDGE ( 'NONE', *, *, #195, .F. ) ;
#146 = LENGTH_MEASURE_WITH_UNIT ( LENGTH_MEASURE( 0.02539999999999999900 ), #29 );
#147 = MECHANICAL_DESIGN_GEOMETRIC_PRESENTATION_REPRESENTATION (  '', ( #149 ), #211 ) ;
#148 = VECTOR ( 'NONE', #80, 39.37007874015748100 ) ;
#149 = STYLED_ITEM ( 'NONE', ( #20 ), #5 ) ;
#150 = PRESENTATION_LAYER_ASSIGNMENT (  '', '', ( #149 ) ) ;
#151 = LENGTH_MEASURE_WITH_UNIT ( LENGTH_MEASURE( 0.02539999999999999900 ), #187 );
#152 = AXIS2_PLACEMENT_3D ( 'NONE', #182, #181, #180 ) ;
#153 = VECTOR ( 'NONE', #41, 39.37007874015748100 ) ;
#154 = PRODUCT_DEFINITION_FORMATION_WITH_SPECIFIED_SOURCE ( 'ANY', '', #3, .NOT_KNOWN. ) ;
#155 = AXIS2_PLACEMENT_3D ( 'NONE', #36, #35, #34 ) ;
#156 = VECTOR ( 'NONE', #47, 39.37007874015748100 ) ;
#157 = VECTOR ( 'NONE', #77, 39.37007874015748100 ) ;
#158 = VECTOR ( 'NONE', #71, 39.37007874015748100 ) ;
#159 = FACE_OUTER_BOUND ( 'NONE', #135, .T. ) ;
#160 = FACE_OUTER_BOUND ( 'NONE', #133, .T. ) ;
#161 = AXIS2_PLACEMENT_3D ( 'NONE', #67, #66, #65 ) ;
#162 = VECTOR ( 'NONE', #50, 39.37007874015748100 ) ;
#163 = VECTOR ( 'NONE', #68, 39.37007874015748100 ) ;
#164 = AXIS2_PLACEMENT_3D ( 'NONE', #63, #62, #61 ) ;
#165 = FACE_OUTER_BOUND ( 'NONE', #131, .T. ) ;
#166 = VECTOR ( 'NONE', #44, 39.37007874015748100 ) ;
#167 = VECTOR ( 'NONE', #74, 39.37007874015748100 ) ;
#168 = FACE_OUTER_BOUND ( 'NONE', #132, .T. ) ;
#169 = AXIS2_PLACEMENT_3D ( 'NONE', #59, #58, #57 ) ;
#170 = VECTOR ( 'NONE', #54, 39.37007874015748100 ) ;
#171 = AXIS2_PLACEMENT_3D ( 'NONE', #40, #39, #38 ) ;
#172 = AXIS2_PLACEMENT_3D ( 'NONE', #32, #31, #30 ) ;
#173 = VECTOR ( 'NONE', #83, 39.37007874015748100 ) ;
#174 = FACE_OUTER_BOUND ( 'NONE', #130, .T. ) ;
#175 = PRODUCT_DEFINITION ( 'UNKNOWN', '', #154, #178 ) ;
#176 = MANIFOLD_SOLID_BREP ( 'Boss-Extrude1', #16 ) ;
#177 = PRODUCT_DEFINITION_SHAPE ( 'NONE', 'NONE',  #175 ) ;
#178 = PRODUCT_DEFINITION_CONTEXT ( 'detailed design', #10, 'design' ) ;
#179 = SHAPE_DEFINITION_REPRESENTATION ( #177, #5 ) ;
#180 = DIRECTION ( 'NONE',  ( 1.000000000000000000, 0.0000000000000000000, 0.0000000000000000000 ) ) ;
#181 = DIRECTION ( 'NONE',  ( 0.0000000000000000000, 0.0000000000000000000, 1.000000000000000000 ) ) ;
#182 = CARTESIAN_POINT ( 'NONE',  ( 0.0000000000000000000, 0.0000000000000000000, 0.0000000000000000000 ) ) ;
#183 =( NAMED_UNIT ( * ) SI_UNIT ( $, .STERADIAN. ) SOLID_ANGLE_UNIT ( ) );
#184 = APPLICATION_PROTOCOL_DEFINITION ( 'draft international standard', 'automotive_design', 1998, #9 ) ;
#185 =( NAMED_UNIT ( * ) PLANE_ANGLE_UNIT ( ) SI_UNIT ( $, .RADIAN. ) );
#186 =( CONVERSION_BASED_UNIT ( 'INCH', #151 ) LENGTH_UNIT ( ) NAMED_UNIT ( #1 ) );
#187 =( LENGTH_UNIT ( ) NAMED_UNIT ( * ) SI_UNIT ( $, .METRE. ) );
#188 = COLOUR_RGB ( '',0.5686274509803921400, 0.5686274509803921400, 0.5882352941176470800 ) ;
#189 = COLOUR_RGB ( '',0.5686274509803921400, 0.5686274509803921400, 0.5882352941176470800 ) ;
#190 = EDGE_CURVE ( 'NONE', #122, #124, #89, .T. ) ;
#191 = EDGE_CURVE ( 'NONE', #128, #129, #85, .T. ) ;
#192 = EDGE_CURVE ( 'NONE', #127, #129, #82, .T. ) ;
#193 = EDGE_CURVE ( 'NONE', #129, #125, #79, .T. ) ;
#194 = EDGE_CURVE ( 'NONE', #126, #125, #76, .T. ) ;
#195 = EDGE_CURVE ( 'NONE', #124, #128, #73, .T. ) ;
#196 = EDGE_CURVE ( 'NONE', #124, #127, #70, .T. ) ;
#197 = ADVANCED_FACE ( 'NONE', ( #11 ), #86, .F. ) ;
#198 = ADVANCED_FACE ( 'NONE', ( #160 ), #64, .F. ) ;
#199 = ADVANCED_FACE ( 'NONE', ( #159 ), #60, .T. ) ;
#200 = EDGE_CURVE ( 'NONE', #123, #128, #56, .T. ) ;
#201 = EDGE_CURVE ( 'NONE', #126, #122, #52, .T. ) ;
#202 = EDGE_CURVE ( 'NONE', #125, #123, #49, .T. ) ;
#203 = EDGE_CURVE ( 'NONE', #122, #123, #46, .T. ) ;
#204 = EDGE_CURVE ( 'NONE', #127, #126, #43, .T. ) ;
#205 = ADVANCED_FACE ( 'NONE', ( #174 ), #53, .F. ) ;
#206 = ADVANCED_FACE ( 'NONE', ( #168 ), #37, .F. ) ;
#207 = ADVANCED_FACE ( 'NONE', ( #165 ), #33, .F. ) ;
#208 = PRODUCT_RELATED_PRODUCT_CATEGORY ( 'part', '', ( #3 ) ) ;
#209 =( GEOMETRIC_REPRESENTATION_CONTEXT ( 3 ) GLOBAL_UNCERTAINTY_ASSIGNED_CONTEXT ( ( #7 ) ) GLOBAL_UNIT_ASSIGNED_CONTEXT ( ( #92, #91, #90 ) ) REPRESENTATION_CONTEXT ( 'NONE', 'WORKASPACE' ) );
#210 =( GEOMETRIC_REPRESENTATION_CONTEXT ( 3 ) GLOBAL_UNCERTAINTY_ASSIGNED_CONTEXT ( ( #8 ) ) GLOBAL_UNIT_ASSIGNED_CONTEXT ( ( #28, #27, #26 ) ) REPRESENTATION_CONTEXT ( 'NONE', 'WORKASPACE' ) );
#211 =( GEOMETRIC_REPRESENTATION_CONTEXT ( 3 ) GLOBAL_UNCERTAINTY_ASSIGNED_CONTEXT ( ( #6 ) ) GLOBAL_UNIT_ASSIGNED_CONTEXT ( ( #186, #185, #183 ) ) REPRESENTATION_CONTEXT ( 'NONE', 'WORKASPACE' ) );
ENDSEC;
END-ISO-10303-21;
