ISO-10303-21;
HEADER;
FILE_DESCRIPTION (( 'STEP AP214' ),
    '1' );
FILE_NAME ('P125HP.step',
    '2012-04-20T21:01:04',
    ( '' ),
    ( '' ),
    'SwSTEP 2.0',
    'SolidWorks 2012',
    '' );
FILE_SCHEMA (( 'AUTOMOTIVE_DESIGN' ));
ENDSEC;

DATA;
#1 = DIMENSIONAL_EXPONENTS ( 1.000000000000000000, 0.0000000000000000000, 0.0000000000000000000, 0.0000000000000000000, 0.0000000000000000000, 0.0000000000000000000, 0.0000000000000000000 ) ;
#2 = PRODUCT ( 'P125HP', 'P125HP', '', ( #24 ) ) ;
#3 = DIMENSIONAL_EXPONENTS ( 1.000000000000000000, 0.0000000000000000000, 0.0000000000000000000, 0.0000000000000000000, 0.0000000000000000000, 0.0000000000000000000, 0.0000000000000000000 ) ;
#4 = DIMENSIONAL_EXPONENTS ( 1.000000000000000000, 0.0000000000000000000, 0.0000000000000000000, 0.0000000000000000000, 0.0000000000000000000, 0.0000000000000000000, 0.0000000000000000000 ) ;
#5 = FACE_OUTER_BOUND ( 'NONE', #140, .T. ) ;
#6 = CLOSED_SHELL ( 'NONE', ( #194, #192, #193, #191, #195, #198 ) ) ;
#7 = VECTOR ( 'NONE', #90, 39.37007874015748100 ) ;
#8 = STYLED_ITEM ( 'NONE', ( #97 ), #183 ) ;
#9 = PRESENTATION_LAYER_ASSIGNMENT (  '', '', ( #8 ) ) ;
#10 = LENGTH_MEASURE_WITH_UNIT ( LENGTH_MEASURE( 0.02539999999999999900 ), #96 );
#11 = MECHANICAL_DESIGN_GEOMETRIC_PRESENTATION_REPRESENTATION (  '', ( #8 ), #209 ) ;
#12 =( NAMED_UNIT ( * ) PLANE_ANGLE_UNIT ( ) SI_UNIT ( $, .RADIAN. ) );
#13 =( CONVERSION_BASED_UNIT ( 'INCH', #176 ) LENGTH_UNIT ( ) NAMED_UNIT ( #3 ) );
#14 =( NAMED_UNIT ( * ) SI_UNIT ( $, .STERADIAN. ) SOLID_ANGLE_UNIT ( ) );
#15 =( LENGTH_UNIT ( ) NAMED_UNIT ( * ) SI_UNIT ( $, .METRE. ) );
#16 = PRESENTATION_STYLE_ASSIGNMENT (( #17 ) ) ;
#17 = SURFACE_STYLE_USAGE ( .BOTH. , #18 ) ;
#18 = SURFACE_SIDE_STYLE ('',( #19 ) ) ;
#19 = SURFACE_STYLE_FILL_AREA ( #20 ) ;
#20 = FILL_AREA_STYLE ('',( #21 ) ) ;
#21 = FILL_AREA_STYLE_COLOUR ( '', #205 ) ;
#22 = APPLICATION_PROTOCOL_DEFINITION ( 'draft international standard', 'automotive_design', 1998, #185 ) ;
#23 = APPLICATION_PROTOCOL_DEFINITION ( 'draft international standard', 'automotive_design', 1998, #186 ) ;
#24 = PRODUCT_CONTEXT ( 'NONE', #185, 'mechanical' ) ;
#25 = DIRECTION ( 'NONE',  ( 0.0000000000000000000, 0.0000000000000000000, 1.000000000000000000 ) ) ;
#26 = CARTESIAN_POINT ( 'NONE',  ( 0.0000000000000000000, 0.0000000000000000000, 0.0000000000000000000 ) ) ;
#27 =( NAMED_UNIT ( * ) SI_UNIT ( $, .STERADIAN. ) SOLID_ANGLE_UNIT ( ) );
#28 =( NAMED_UNIT ( * ) PLANE_ANGLE_UNIT ( ) SI_UNIT ( $, .RADIAN. ) );
#29 =( CONVERSION_BASED_UNIT ( 'INCH', #170 ) LENGTH_UNIT ( ) NAMED_UNIT ( #1 ) );
#30 =( LENGTH_UNIT ( ) NAMED_UNIT ( * ) SI_UNIT ( $, .METRE. ) );
#31 = SHAPE_DEFINITION_REPRESENTATION ( #182, #150 ) ;
#32 = DIRECTION ( 'NONE',  ( 1.000000000000000000, 0.0000000000000000000, 0.0000000000000000000 ) ) ;
#33 = DIRECTION ( 'NONE',  ( -0.0000000000000000000, -0.0000000000000000000, 1.000000000000000000 ) ) ;
#34 = DIRECTION ( 'NONE',  ( -1.000000000000000000, -0.0000000000000000000, -0.0000000000000000000 ) ) ;
#35 = LINE ( 'NONE', #36, #155 ) ;
#36 = CARTESIAN_POINT ( 'NONE',  ( 0.0000000000000000000, 0.0000000000000000000, 0.0000000000000000000 ) ) ;
#37 = DIRECTION ( 'NONE',  ( -1.000000000000000000, -0.0000000000000000000, -0.0000000000000000000 ) ) ;
#38 = CARTESIAN_POINT ( 'NONE',  ( 0.0000000000000000000, 0.1250000000000000000, -2.000000000000000000 ) ) ;
#39 = LINE ( 'NONE', #38, #181 ) ;
#40 = DIRECTION ( 'NONE',  ( -0.0000000000000000000, -1.000000000000000000, -0.0000000000000000000 ) ) ;
#41 = LINE ( 'NONE', #42, #165 ) ;
#42 = CARTESIAN_POINT ( 'NONE',  ( 0.0000000000000000000, 0.0000000000000000000, -2.000000000000000000 ) ) ;
#43 = CARTESIAN_POINT ( 'NONE',  ( 0.0000000000000000000, 0.1250000000000000000, -2.000000000000000000 ) ) ;
#44 = LINE ( 'NONE', #43, #177 ) ;
#45 = DIRECTION ( 'NONE',  ( -1.365923996832131600E-016, -0.0000000000000000000, -1.000000000000000000 ) ) ;
#46 = CARTESIAN_POINT ( 'NONE',  ( 0.9999999999999996700, 0.1250000000000000000, -2.000000000000000000 ) ) ;
#47 = LINE ( 'NONE', #46, #157 ) ;
#48 = DIRECTION ( 'NONE',  ( -0.0000000000000000000, -0.0000000000000000000, 1.000000000000000000 ) ) ;
#49 = CARTESIAN_POINT ( 'NONE',  ( 0.0000000000000000000, 0.1250000000000000000, 0.0000000000000000000 ) ) ;
#50 = LINE ( 'NONE', #49, #162 ) ;
#51 = DIRECTION ( 'NONE',  ( 0.0000000000000000000, 0.0000000000000000000, -1.000000000000000000 ) ) ;
#52 = DIRECTION ( 'NONE',  ( 0.0000000000000000000, -1.000000000000000000, -0.0000000000000000000 ) ) ;
#53 = CARTESIAN_POINT ( 'NONE',  ( 0.0000000000000000000, 0.0000000000000000000, 0.0000000000000000000 ) ) ;
#54 = DIRECTION ( 'NONE',  ( 1.000000000000000000, -0.0000000000000000000, -6.123233995736766000E-017 ) ) ;
#55 = CARTESIAN_POINT ( 'NONE',  ( 1.000000000000000000, 0.0000000000000000000, -6.123233995736766000E-017 ) ) ;
#56 = LINE ( 'NONE', #55, #166 ) ;
#57 = PLANE ( 'NONE',  #163 ) ;
#58 = DIRECTION ( 'NONE',  ( -0.0000000000000000000, -1.000000000000000000, -0.0000000000000000000 ) ) ;
#59 = CARTESIAN_POINT ( 'NONE',  ( 1.000000000000000000, 0.1250000000000000000, -6.123233995736766000E-017 ) ) ;
#60 = LINE ( 'NONE', #59, #169 ) ;
#61 = DIRECTION ( 'NONE',  ( 0.0000000000000000000, 0.0000000000000000000, -1.000000000000000000 ) ) ;
#62 = DIRECTION ( 'NONE',  ( 0.0000000000000000000, -1.000000000000000000, -0.0000000000000000000 ) ) ;
#63 = CARTESIAN_POINT ( 'NONE',  ( 0.0000000000000000000, 0.1250000000000000000, 0.0000000000000000000 ) ) ;
#64 = PLANE ( 'NONE',  #174 ) ;
#65 = DIRECTION ( 'NONE',  ( -1.000000000000000000, 0.0000000000000000000, 6.123233995736766000E-017 ) ) ;
#66 = DIRECTION ( 'NONE',  ( -6.123233995736766000E-017, 0.0000000000000000000, -1.000000000000000000 ) ) ;
#67 = CARTESIAN_POINT ( 'NONE',  ( 1.000000000000000000, 0.1250000000000000000, -6.123233995736766000E-017 ) ) ;
#68 = PLANE ( 'NONE',  #175 ) ;
#69 = DIRECTION ( 'NONE',  ( 1.000000000000000000, 0.0000000000000000000, -0.0000000000000000000 ) ) ;
#70 = DIRECTION ( 'NONE',  ( 0.0000000000000000000, 0.0000000000000000000, 1.000000000000000000 ) ) ;
#71 = CARTESIAN_POINT ( 'NONE',  ( 0.0000000000000000000, 0.1250000000000000000, -2.000000000000000000 ) ) ;
#72 = PLANE ( 'NONE',  #172 ) ;
#73 = DIRECTION ( 'NONE',  ( 1.365923996832131600E-016, 0.0000000000000000000, 1.000000000000000000 ) ) ;
#74 = DIRECTION ( 'NONE',  ( -1.000000000000000000, 0.0000000000000000000, 1.365923996832131600E-016 ) ) ;
#75 = CARTESIAN_POINT ( 'NONE',  ( 0.9999999999999996700, 0.1250000000000000000, -2.000000000000000000 ) ) ;
#76 = PLANE ( 'NONE',  #180 ) ;
#77 = DIRECTION ( 'NONE',  ( 0.0000000000000000000, 0.0000000000000000000, -1.000000000000000000 ) ) ;
#78 = DIRECTION ( 'NONE',  ( 1.000000000000000000, -0.0000000000000000000, 0.0000000000000000000 ) ) ;
#79 = CARTESIAN_POINT ( 'NONE',  ( 0.0000000000000000000, 0.1250000000000000000, 0.0000000000000000000 ) ) ;
#80 = DIRECTION ( 'NONE',  ( -1.365923996832131600E-016, -0.0000000000000000000, -1.000000000000000000 ) ) ;
#81 = CARTESIAN_POINT ( 'NONE',  ( 0.9999999999999996700, 0.0000000000000000000, -2.000000000000000000 ) ) ;
#82 = LINE ( 'NONE', #81, #171 ) ;
#83 = DIRECTION ( 'NONE',  ( -0.0000000000000000000, -1.000000000000000000, -0.0000000000000000000 ) ) ;
#84 = CARTESIAN_POINT ( 'NONE',  ( 0.9999999999999996700, 0.1250000000000000000, -2.000000000000000000 ) ) ;
#85 = LINE ( 'NONE', #84, #178 ) ;
#86 = DIRECTION ( 'NONE',  ( -0.0000000000000000000, -1.000000000000000000, -0.0000000000000000000 ) ) ;
#87 = CARTESIAN_POINT ( 'NONE',  ( 0.0000000000000000000, 0.1250000000000000000, 0.0000000000000000000 ) ) ;
#88 = LINE ( 'NONE', #87, #167 ) ;
#89 = PLANE ( 'NONE',  #168 ) ;
#90 = DIRECTION ( 'NONE',  ( 1.000000000000000000, -0.0000000000000000000, -6.123233995736766000E-017 ) ) ;
#91 = CARTESIAN_POINT ( 'NONE',  ( 1.000000000000000000, 0.1250000000000000000, -6.123233995736766000E-017 ) ) ;
#92 = LINE ( 'NONE', #91, #7 ) ;
#93 =( NAMED_UNIT ( * ) SI_UNIT ( $, .STERADIAN. ) SOLID_ANGLE_UNIT ( ) );
#94 =( NAMED_UNIT ( * ) PLANE_ANGLE_UNIT ( ) SI_UNIT ( $, .RADIAN. ) );
#95 =( CONVERSION_BASED_UNIT ( 'INCH', #10 ) LENGTH_UNIT ( ) NAMED_UNIT ( #4 ) );
#96 =( LENGTH_UNIT ( ) NAMED_UNIT ( * ) SI_UNIT ( $, .METRE. ) );
#97 = PRESENTATION_STYLE_ASSIGNMENT (( #98 ) ) ;
#98 = SURFACE_STYLE_USAGE ( .BOTH. , #99 ) ;
#99 = SURFACE_SIDE_STYLE ('',( #100 ) ) ;
#100 = SURFACE_STYLE_FILL_AREA ( #101 ) ;
#101 = FILL_AREA_STYLE ('',( #102 ) ) ;
#102 = FILL_AREA_STYLE_COLOUR ( '', #208 ) ;
#103 = CARTESIAN_POINT ( 'NONE',  ( 0.9999999999999996700, 0.1250000000000000000, -2.000000000000000000 ) ) ;
#104 = CARTESIAN_POINT ( 'NONE',  ( 0.0000000000000000000, 0.0000000000000000000, 0.0000000000000000000 ) ) ;
#105 = CARTESIAN_POINT ( 'NONE',  ( 1.000000000000000000, 0.0000000000000000000, -6.123233995736766000E-017 ) ) ;
#106 = CARTESIAN_POINT ( 'NONE',  ( 0.0000000000000000000, 0.1250000000000000000, 0.0000000000000000000 ) ) ;
#107 = CARTESIAN_POINT ( 'NONE',  ( 0.0000000000000000000, 0.0000000000000000000, -2.000000000000000000 ) ) ;
#108 = CARTESIAN_POINT ( 'NONE',  ( 0.9999999999999996700, 0.0000000000000000000, -2.000000000000000000 ) ) ;
#109 = CARTESIAN_POINT ( 'NONE',  ( 0.0000000000000000000, 0.1250000000000000000, -2.000000000000000000 ) ) ;
#110 = CARTESIAN_POINT ( 'NONE',  ( 1.000000000000000000, 0.1250000000000000000, -6.123233995736766000E-017 ) ) ;
#111 = ORIENTED_EDGE ( 'NONE', *, *, #204, .T. ) ;
#112 = ORIENTED_EDGE ( 'NONE', *, *, #199, .F. ) ;
#113 = ORIENTED_EDGE ( 'NONE', *, *, #189, .T. ) ;
#114 = ORIENTED_EDGE ( 'NONE', *, *, #201, .F. ) ;
#115 = ORIENTED_EDGE ( 'NONE', *, *, #203, .F. ) ;
#116 = ORIENTED_EDGE ( 'NONE', *, *, #202, .T. ) ;
#117 = ORIENTED_EDGE ( 'NONE', *, *, #196, .T. ) ;
#118 = ORIENTED_EDGE ( 'NONE', *, *, #202, .F. ) ;
#119 = ORIENTED_EDGE ( 'NONE', *, *, #204, .F. ) ;
#120 = ORIENTED_EDGE ( 'NONE', *, *, #197, .F. ) ;
#121 = ORIENTED_EDGE ( 'NONE', *, *, #190, .F. ) ;
#122 = ORIENTED_EDGE ( 'NONE', *, *, #203, .T. ) ;
#123 = ORIENTED_EDGE ( 'NONE', *, *, #200, .T. ) ;
#124 = ORIENTED_EDGE ( 'NONE', *, *, #187, .T. ) ;
#125 = ORIENTED_EDGE ( 'NONE', *, *, #201, .T. ) ;
#126 = ORIENTED_EDGE ( 'NONE', *, *, #199, .T. ) ;
#127 = ORIENTED_EDGE ( 'NONE', *, *, #188, .F. ) ;
#128 = VERTEX_POINT ( 'NONE', #110 ) ;
#129 = VERTEX_POINT ( 'NONE', #109 ) ;
#130 = VERTEX_POINT ( 'NONE', #108 ) ;
#131 = VERTEX_POINT ( 'NONE', #107 ) ;
#132 = VERTEX_POINT ( 'NONE', #106 ) ;
#133 = VERTEX_POINT ( 'NONE', #105 ) ;
#134 = VERTEX_POINT ( 'NONE', #104 ) ;
#135 = VERTEX_POINT ( 'NONE', #103 ) ;
#136 = EDGE_LOOP ( 'NONE', ( #144, #142, #143, #117 ) ) ;
#137 = EDGE_LOOP ( 'NONE', ( #124, #123, #122, #126 ) ) ;
#138 = EDGE_LOOP ( 'NONE', ( #116, #114, #115, #113 ) ) ;
#139 = EDGE_LOOP ( 'NONE', ( #120, #119, #118, #121 ) ) ;
#140 = EDGE_LOOP ( 'NONE', ( #111, #127, #112, #125 ) ) ;
#141 = ORIENTED_EDGE ( 'NONE', *, *, #197, .T. ) ;
#142 = ORIENTED_EDGE ( 'NONE', *, *, #189, .F. ) ;
#143 = ORIENTED_EDGE ( 'NONE', *, *, #200, .F. ) ;
#144 = ORIENTED_EDGE ( 'NONE', *, *, #190, .T. ) ;
#145 = ORIENTED_EDGE ( 'NONE', *, *, #187, .F. ) ;
#146 = ORIENTED_EDGE ( 'NONE', *, *, #188, .T. ) ;
#147 = ORIENTED_EDGE ( 'NONE', *, *, #196, .F. ) ;
#148 = EDGE_LOOP ( 'NONE', ( #141, #147, #145, #146 ) ) ;
#149 = UNCERTAINTY_MEASURE_WITH_UNIT (LENGTH_MEASURE( 1.000000000000000100E-005 ), #95, 'distance_accuracy_value', 'NONE');
#150 = ADVANCED_BREP_SHAPE_REPRESENTATION ( 'P125HP', ( #183, #179 ), #210 ) ;
#151 = UNCERTAINTY_MEASURE_WITH_UNIT (LENGTH_MEASURE( 1.000000000000000100E-005 ), #13, 'distance_accuracy_value', 'NONE');
#152 = UNCERTAINTY_MEASURE_WITH_UNIT (LENGTH_MEASURE( 1.000000000000000100E-005 ), #29, 'distance_accuracy_value', 'NONE');
#153 = FACE_OUTER_BOUND ( 'NONE', #139, .T. ) ;
#154 = STYLED_ITEM ( 'NONE', ( #16 ), #150 ) ;
#155 = VECTOR ( 'NONE', #33, 39.37007874015748100 ) ;
#156 = FACE_OUTER_BOUND ( 'NONE', #138, .T. ) ;
#157 = VECTOR ( 'NONE', #45, 39.37007874015748100 ) ;
#158 = FACE_OUTER_BOUND ( 'NONE', #148, .T. ) ;
#159 = FACE_OUTER_BOUND ( 'NONE', #136, .T. ) ;
#160 = PRESENTATION_LAYER_ASSIGNMENT (  '', '', ( #154 ) ) ;
#161 = FACE_OUTER_BOUND ( 'NONE', #137, .T. ) ;
#162 = VECTOR ( 'NONE', #48, 39.37007874015748100 ) ;
#163 = AXIS2_PLACEMENT_3D ( 'NONE', #53, #52, #51 ) ;
#164 = PRODUCT_DEFINITION_FORMATION_WITH_SPECIFIED_SOURCE ( 'ANY', '', #2, .NOT_KNOWN. ) ;
#165 = VECTOR ( 'NONE', #37, 39.37007874015748100 ) ;
#166 = VECTOR ( 'NONE', #54, 39.37007874015748100 ) ;
#167 = VECTOR ( 'NONE', #86, 39.37007874015748100 ) ;
#168 = AXIS2_PLACEMENT_3D ( 'NONE', #79, #78, #77 ) ;
#169 = VECTOR ( 'NONE', #58, 39.37007874015748100 ) ;
#170 = LENGTH_MEASURE_WITH_UNIT ( LENGTH_MEASURE( 0.02539999999999999900 ), #30 );
#171 = VECTOR ( 'NONE', #80, 39.37007874015748100 ) ;
#172 = AXIS2_PLACEMENT_3D ( 'NONE', #71, #70, #69 ) ;
#173 = MECHANICAL_DESIGN_GEOMETRIC_PRESENTATION_REPRESENTATION (  '', ( #154 ), #211 ) ;
#174 = AXIS2_PLACEMENT_3D ( 'NONE', #63, #62, #61 ) ;
#175 = AXIS2_PLACEMENT_3D ( 'NONE', #67, #66, #65 ) ;
#176 = LENGTH_MEASURE_WITH_UNIT ( LENGTH_MEASURE( 0.02539999999999999900 ), #15 );
#177 = VECTOR ( 'NONE', #40, 39.37007874015748100 ) ;
#178 = VECTOR ( 'NONE', #83, 39.37007874015748100 ) ;
#179 = AXIS2_PLACEMENT_3D ( 'NONE', #26, #25, #32 ) ;
#180 = AXIS2_PLACEMENT_3D ( 'NONE', #75, #74, #73 ) ;
#181 = VECTOR ( 'NONE', #34, 39.37007874015748100 ) ;
#182 = PRODUCT_DEFINITION_SHAPE ( 'NONE', 'NONE',  #207 ) ;
#183 = MANIFOLD_SOLID_BREP ( 'Boss-Extrude1', #6 ) ;
#184 = PRODUCT_DEFINITION_CONTEXT ( 'detailed design', #186, 'design' ) ;
#185 = APPLICATION_CONTEXT ( 'automotive_design' ) ;
#186 = APPLICATION_CONTEXT ( 'automotive_design' ) ;
#187 = EDGE_CURVE ( 'NONE', #132, #128, #92, .T. ) ;
#188 = EDGE_CURVE ( 'NONE', #132, #134, #88, .T. ) ;
#189 = EDGE_CURVE ( 'NONE', #135, #130, #85, .T. ) ;
#190 = EDGE_CURVE ( 'NONE', #133, #130, #82, .T. ) ;
#191 = ADVANCED_FACE ( 'NONE', ( #5 ), #89, .F. ) ;
#192 = ADVANCED_FACE ( 'NONE', ( #159 ), #76, .F. ) ;
#193 = ADVANCED_FACE ( 'NONE', ( #156 ), #72, .F. ) ;
#194 = ADVANCED_FACE ( 'NONE', ( #158 ), #68, .F. ) ;
#195 = ADVANCED_FACE ( 'NONE', ( #161 ), #64, .F. ) ;
#196 = EDGE_CURVE ( 'NONE', #128, #133, #60, .T. ) ;
#197 = EDGE_CURVE ( 'NONE', #134, #133, #56, .T. ) ;
#198 = ADVANCED_FACE ( 'NONE', ( #153 ), #57, .T. ) ;
#199 = EDGE_CURVE ( 'NONE', #129, #132, #50, .T. ) ;
#200 = EDGE_CURVE ( 'NONE', #128, #135, #47, .T. ) ;
#201 = EDGE_CURVE ( 'NONE', #129, #131, #44, .T. ) ;
#202 = EDGE_CURVE ( 'NONE', #130, #131, #41, .T. ) ;
#203 = EDGE_CURVE ( 'NONE', #135, #129, #39, .T. ) ;
#204 = EDGE_CURVE ( 'NONE', #131, #134, #35, .T. ) ;
#205 = COLOUR_RGB ( '',0.5686274509803921400, 0.5686274509803921400, 0.5882352941176470800 ) ;
#206 = PRODUCT_RELATED_PRODUCT_CATEGORY ( 'part', '', ( #2 ) ) ;
#207 = PRODUCT_DEFINITION ( 'UNKNOWN', '', #164, #184 ) ;
#208 = COLOUR_RGB ( '',0.5686274509803921400, 0.5686274509803921400, 0.5882352941176470800 ) ;
#209 =( GEOMETRIC_REPRESENTATION_CONTEXT ( 3 ) GLOBAL_UNCERTAINTY_ASSIGNED_CONTEXT ( ( #149 ) ) GLOBAL_UNIT_ASSIGNED_CONTEXT ( ( #95, #94, #93 ) ) REPRESENTATION_CONTEXT ( 'NONE', 'WORKASPACE' ) );
#210 =( GEOMETRIC_REPRESENTATION_CONTEXT ( 3 ) GLOBAL_UNCERTAINTY_ASSIGNED_CONTEXT ( ( #152 ) ) GLOBAL_UNIT_ASSIGNED_CONTEXT ( ( #29, #28, #27 ) ) REPRESENTATION_CONTEXT ( 'NONE', 'WORKASPACE' ) );
#211 =( GEOMETRIC_REPRESENTATION_CONTEXT ( 3 ) GLOBAL_UNCERTAINTY_ASSIGNED_CONTEXT ( ( #151 ) ) GLOBAL_UNIT_ASSIGNED_CONTEXT ( ( #13, #12, #14 ) ) REPRESENTATION_CONTEXT ( 'NONE', 'WORKASPACE' ) );
ENDSEC;
END-ISO-10303-21;
