ISO-10303-21;
HEADER;
FILE_DESCRIPTION (( 'STEP AP214' ),
    '1' );
FILE_NAME ('P250BBB.step',
    '2012-04-20T21:01:14',
    ( '' ),
    ( '' ),
    'SwSTEP 2.0',
    'SolidWorks 2012',
    '' );
FILE_SCHEMA (( 'AUTOMOTIVE_DESIGN' ));
ENDSEC;

DATA;
#1 = CARTESIAN_POINT ( 'NONE',  ( 0.1250000000000000300, -0.06716878364870319800, 0.2500000000000000000 ) ) ;
#2 = LINE ( 'NONE', #1, #292 ) ;
#3 = DIRECTION ( 'NONE',  ( 1.000000000000000000, 0.0000000000000000000, -0.0000000000000000000 ) ) ;
#4 = DIRECTION ( 'NONE',  ( 0.0000000000000000000, 0.0000000000000000000, 1.000000000000000000 ) ) ;
#5 = CARTESIAN_POINT ( 'NONE',  ( 0.0000000000000000000, 0.0000000000000000000, 0.2500000000000000000 ) ) ;
#6 = PLANE ( 'NONE',  #298 ) ;
#7 = DIRECTION ( 'NONE',  ( 0.0000000000000000000, 0.0000000000000000000, -1.000000000000000000 ) ) ;
#8 = CARTESIAN_POINT ( 'NONE',  ( -0.1163397459621556400, -0.07216878364870325800, 0.2500000000000000000 ) ) ;
#9 = LINE ( 'NONE', #8, #265 ) ;
#10 = PRODUCT_RELATED_PRODUCT_CATEGORY ( 'part', '', ( #14 ) ) ;
#11 = DIMENSIONAL_EXPONENTS ( 1.000000000000000000, 0.0000000000000000000, 0.0000000000000000000, 0.0000000000000000000, 0.0000000000000000000, 0.0000000000000000000, 0.0000000000000000000 ) ;
#12 = DIMENSIONAL_EXPONENTS ( 1.000000000000000000, 0.0000000000000000000, 0.0000000000000000000, 0.0000000000000000000, 0.0000000000000000000, 0.0000000000000000000, 0.0000000000000000000 ) ;
#13 = DIMENSIONAL_EXPONENTS ( 1.000000000000000000, 0.0000000000000000000, 0.0000000000000000000, 0.0000000000000000000, 0.0000000000000000000, 0.0000000000000000000, 0.0000000000000000000 ) ;
#14 = PRODUCT ( 'P250BBB', 'P250BBB', '', ( #59 ) ) ;
#15 = CIRCLE ( 'NONE', #67, 0.004999999999999997500 ) ;
#16 = COLOUR_RGB ( '',0.5686274509803921400, 0.5686274509803921400, 0.5882352941176470800 ) ;
#17 = CIRCLE ( 'NONE', #273, 0.004999999999999997500 ) ;
#18 = CIRCLE ( 'NONE', #276, 0.004999999999999997500 ) ;
#19 = COLOUR_RGB ( '',0.5686274509803921400, 0.5686274509803921400, 0.5882352941176470800 ) ;
#20 =( GEOMETRIC_REPRESENTATION_CONTEXT ( 3 ) GLOBAL_UNCERTAINTY_ASSIGNED_CONTEXT ( ( #23 ) ) GLOBAL_UNIT_ASSIGNED_CONTEXT ( ( #52, #53, #54 ) ) REPRESENTATION_CONTEXT ( 'NONE', 'WORKASPACE' ) );
#21 = UNCERTAINTY_MEASURE_WITH_UNIT (LENGTH_MEASURE( 1.000000000000000100E-005 ), #37, 'distance_accuracy_value', 'NONE');
#22 = ADVANCED_BREP_SHAPE_REPRESENTATION ( 'P250BBB', ( #261, #282 ), #79 ) ;
#23 = UNCERTAINTY_MEASURE_WITH_UNIT (LENGTH_MEASURE( 1.000000000000000100E-005 ), #52, 'distance_accuracy_value', 'NONE');
#24 = UNCERTAINTY_MEASURE_WITH_UNIT (LENGTH_MEASURE( 1.000000000000000100E-005 ), #41, 'distance_accuracy_value', 'NONE');
#25 = CARTESIAN_POINT ( 'NONE',  ( 0.1250000000000000300, -0.07216878364870318900, 0.2500000000000000000 ) ) ;
#26 = PLANE ( 'NONE',  #290 ) ;
#27 = DIRECTION ( 'NONE',  ( 1.000000000000000000, 2.731847993664262700E-016, -0.0000000000000000000 ) ) ;
#28 = DIRECTION ( 'NONE',  ( -0.8660254037844387100, -0.4999999999999999400, 0.0000000000000000000 ) ) ;
#29 = DIRECTION ( 'NONE',  ( 0.4999999999999998900, -0.8660254037844386000, 0.0000000000000000000 ) ) ;
#30 = FILL_AREA_STYLE_COLOUR ( '', #16 ) ;
#31 = FILL_AREA_STYLE ('',( #30 ) ) ;
#32 = SURFACE_STYLE_FILL_AREA ( #31 ) ;
#33 = SURFACE_SIDE_STYLE ('',( #32 ) ) ;
#34 = SURFACE_STYLE_USAGE ( .BOTH. , #33 ) ;
#35 = PRESENTATION_STYLE_ASSIGNMENT (( #34 ) ) ;
#36 =( LENGTH_UNIT ( ) NAMED_UNIT ( * ) SI_UNIT ( $, .METRE. ) );
#37 =( CONVERSION_BASED_UNIT ( 'INCH', #295 ) LENGTH_UNIT ( ) NAMED_UNIT ( #13 ) );
#38 =( NAMED_UNIT ( * ) PLANE_ANGLE_UNIT ( ) SI_UNIT ( $, .RADIAN. ) );
#39 =( NAMED_UNIT ( * ) SI_UNIT ( $, .STERADIAN. ) SOLID_ANGLE_UNIT ( ) );
#40 =( LENGTH_UNIT ( ) NAMED_UNIT ( * ) SI_UNIT ( $, .METRE. ) );
#41 =( CONVERSION_BASED_UNIT ( 'INCH', #291 ) LENGTH_UNIT ( ) NAMED_UNIT ( #11 ) );
#42 =( NAMED_UNIT ( * ) PLANE_ANGLE_UNIT ( ) SI_UNIT ( $, .RADIAN. ) );
#43 =( NAMED_UNIT ( * ) SI_UNIT ( $, .STERADIAN. ) SOLID_ANGLE_UNIT ( ) );
#44 = APPLICATION_PROTOCOL_DEFINITION ( 'draft international standard', 'automotive_design', 1998, #76 ) ;
#45 = FILL_AREA_STYLE_COLOUR ( '', #19 ) ;
#46 = FILL_AREA_STYLE ('',( #45 ) ) ;
#47 = SURFACE_STYLE_FILL_AREA ( #46 ) ;
#48 = SURFACE_SIDE_STYLE ('',( #47 ) ) ;
#49 = SURFACE_STYLE_USAGE ( .BOTH. , #48 ) ;
#50 = PRESENTATION_STYLE_ASSIGNMENT (( #49 ) ) ;
#51 =( LENGTH_UNIT ( ) NAMED_UNIT ( * ) SI_UNIT ( $, .METRE. ) );
#52 =( CONVERSION_BASED_UNIT ( 'INCH', #275 ) LENGTH_UNIT ( ) NAMED_UNIT ( #12 ) );
#53 =( NAMED_UNIT ( * ) PLANE_ANGLE_UNIT ( ) SI_UNIT ( $, .RADIAN. ) );
#54 =( NAMED_UNIT ( * ) SI_UNIT ( $, .STERADIAN. ) SOLID_ANGLE_UNIT ( ) );
#55 = CARTESIAN_POINT ( 'NONE',  ( 0.0000000000000000000, 0.0000000000000000000, 0.0000000000000000000 ) ) ;
#56 = DIRECTION ( 'NONE',  ( 0.0000000000000000000, 0.0000000000000000000, 1.000000000000000000 ) ) ;
#57 = DIRECTION ( 'NONE',  ( 1.000000000000000000, 0.0000000000000000000, 0.0000000000000000000 ) ) ;
#58 = SHAPE_DEFINITION_REPRESENTATION ( #262, #22 ) ;
#59 = PRODUCT_CONTEXT ( 'NONE', #76, 'mechanical' ) ;
#60 = APPLICATION_PROTOCOL_DEFINITION ( 'draft international standard', 'automotive_design', 1998, #77 ) ;
#61 = VECTOR ( 'NONE', #140, 39.37007874015748900 ) ;
#62 = AXIS2_PLACEMENT_3D ( 'NONE', #115, #116, #111 ) ;
#63 = VECTOR ( 'NONE', #131, 39.37007874015748100 ) ;
#64 = AXIS2_PLACEMENT_3D ( 'NONE', #113, #112, #108 ) ;
#65 = CLOSED_SHELL ( 'NONE', ( #256, #260, #244, #245, #258, #246, #233, #249, #252, #255 ) ) ;
#66 = VECTOR ( 'NONE', #145, 39.37007874015748900 ) ;
#67 = AXIS2_PLACEMENT_3D ( 'NONE', #104, #135, #210 ) ;
#68 = VECTOR ( 'NONE', #139, 39.37007874015748100 ) ;
#69 = CYLINDRICAL_SURFACE ( 'NONE', #64, 0.004999999999999997500 ) ;
#70 = FACE_OUTER_BOUND ( 'NONE', #171, .T. ) ;
#71 = CIRCLE ( 'NONE', #62, 0.004999999999999997500 ) ;
#72 = EDGE_CURVE ( 'NONE', #191, #187, #144, .T. ) ;
#73 = EDGE_CURVE ( 'NONE', #189, #188, #142, .T. ) ;
#74 = EDGE_CURVE ( 'NONE', #188, #187, #138, .T. ) ;
#75 = EDGE_CURVE ( 'NONE', #191, #189, #134, .T. ) ;
#76 = APPLICATION_CONTEXT ( 'automotive_design' ) ;
#77 = APPLICATION_CONTEXT ( 'automotive_design' ) ;
#78 =( GEOMETRIC_REPRESENTATION_CONTEXT ( 3 ) GLOBAL_UNCERTAINTY_ASSIGNED_CONTEXT ( ( #21 ) ) GLOBAL_UNIT_ASSIGNED_CONTEXT ( ( #37, #38, #39 ) ) REPRESENTATION_CONTEXT ( 'NONE', 'WORKASPACE' ) );
#79 =( GEOMETRIC_REPRESENTATION_CONTEXT ( 3 ) GLOBAL_UNCERTAINTY_ASSIGNED_CONTEXT ( ( #24 ) ) GLOBAL_UNIT_ASSIGNED_CONTEXT ( ( #41, #42, #43 ) ) REPRESENTATION_CONTEXT ( 'NONE', 'WORKASPACE' ) );
#80 = CARTESIAN_POINT ( 'NONE',  ( 0.1163397459621556600, -0.07216878364870318900, 0.2500000000000000000 ) ) ;
#81 = LINE ( 'NONE', #80, #299 ) ;
#82 = CARTESIAN_POINT ( 'NONE',  ( -0.1250000000000000300, -0.06716878364870326700, 0.005000000000000014800 ) ) ;
#83 = LINE ( 'NONE', #89, #304 ) ;
#84 = DIRECTION ( 'NONE',  ( 2.731847993664267200E-016, -1.000000000000000000, 0.0000000000000000000 ) ) ;
#85 = DIRECTION ( 'NONE',  ( -1.000000000000000000, -2.731847993664262700E-016, 0.0000000000000000000 ) ) ;
#86 = CARTESIAN_POINT ( 'NONE',  ( -0.1213397459621556500, -0.06716878364870326700, 0.2500000000000000000 ) ) ;
#87 = DIRECTION ( 'NONE',  ( 0.0000000000000000000, 0.0000000000000000000, -1.000000000000000000 ) ) ;
#88 = DIRECTION ( 'NONE',  ( -1.000000000000000000, -2.731847993664262700E-016, -0.0000000000000000000 ) ) ;
#89 = CARTESIAN_POINT ( 'NONE',  ( -0.1250000000000000300, -0.07216878364870325800, 0.2450000000000000000 ) ) ;
#90 = CARTESIAN_POINT ( 'NONE',  ( 1.834949068475788500E-017, -0.06716878364870322600, 0.2450000000000000000 ) ) ;
#91 = LINE ( 'NONE', #86, #306 ) ;
#92 = DIRECTION ( 'NONE',  ( 0.0000000000000000000, 0.0000000000000000000, 1.000000000000000000 ) ) ;
#93 = DIRECTION ( 'NONE',  ( 1.000000000000000000, 0.0000000000000000000, 0.0000000000000000000 ) ) ;
#94 = DIRECTION ( 'NONE',  ( 1.000000000000000000, 2.731847993664262700E-016, -0.0000000000000000000 ) ) ;
#95 = DIRECTION ( 'NONE',  ( -0.0000000000000000000, -0.0000000000000000000, 1.000000000000000000 ) ) ;
#96 = CARTESIAN_POINT ( 'NONE',  ( 0.1213397459621556000, -0.07009771583683771500, 0.2500000000000000600 ) ) ;
#97 = CARTESIAN_POINT ( 'NONE',  ( 0.1192686781502901700, -0.07216878364870318900, 0.2479289321881344700 ) ) ;
#98 = CARTESIAN_POINT ( 'NONE',  ( 0.1163397459621556600, -0.07216878364870318900, 0.2450000000000000000 ) ) ;
#99 = CARTESIAN_POINT ( 'NONE',  ( 0.1213397459621556600, -0.06716878364870319800, 0.0000000000000000000 ) ) ;
#100 = CARTESIAN_POINT ( 'NONE',  ( -0.1213397459621556500, -0.06716878364870326700, 0.2500000000000000000 ) ) ;
#101 = LINE ( 'NONE', #133, #267 ) ;
#102 = CARTESIAN_POINT ( 'NONE',  ( -0.1213397459621556000, -0.07009771583683778500, 0.2500000000000000600 ) ) ;
#103 = CARTESIAN_POINT ( 'NONE',  ( -0.1192686781502901700, -0.07216878364870325800, 0.2479289321881344700 ) ) ;
#104 = CARTESIAN_POINT ( 'NONE',  ( -0.1163397459621556400, -0.06716878364870326700, 0.0000000000000000000 ) ) ;
#105 = CARTESIAN_POINT ( 'NONE',  ( 0.1213397459621556600, -0.06716878364870319800, 0.2500000000000000000 ) ) ;
#106 = CARTESIAN_POINT ( 'NONE',  ( -0.1163397459621556400, -0.07216878364870325800, 0.2450000000000000000 ) ) ;
#107 = DIRECTION ( 'NONE',  ( 0.0000000000000000000, 0.0000000000000000000, -1.000000000000000000 ) ) ;
#108 = DIRECTION ( 'NONE',  ( -1.000000000000000000, 0.0000000000000000000, 0.0000000000000000000 ) ) ;
#109 = CARTESIAN_POINT ( 'NONE',  ( 0.1206698729810778400, -0.06466878364870321000, 0.2500000000000000000 ) ) ;
#110 = LINE ( 'NONE', #109, #303 ) ;
#111 = DIRECTION ( 'NONE',  ( 1.000000000000000000, 3.414809992080330700E-015, 0.0000000000000000000 ) ) ;
#112 = DIRECTION ( 'NONE',  ( 0.0000000000000000000, 0.0000000000000000000, -1.000000000000000000 ) ) ;
#113 = CARTESIAN_POINT ( 'NONE',  ( 0.1163397459621556600, -0.06716878364870319800, 0.2500000000000000000 ) ) ;
#114 = CARTESIAN_POINT ( 'NONE',  ( -0.1163397459621556400, -0.07216878364870325800, 0.2450000000000000000 ) ) ;
#115 = CARTESIAN_POINT ( 'NONE',  ( 0.1163397459621556600, -0.06716878364870319800, 0.0000000000000000000 ) ) ;
#116 = DIRECTION ( 'NONE',  ( -0.0000000000000000000, -0.0000000000000000000, -1.000000000000000000 ) ) ;
#117 = CARTESIAN_POINT ( 'NONE',  ( -0.1213397459621556500, -0.06716878364870326700, 0.2500000000000000000 ) ) ;
#118 = CARTESIAN_POINT ( 'NONE',  ( -0.1163397459621556400, -0.07216878364870325800, 0.005000000000000014800 ) ) ;
#119 = CARTESIAN_POINT ( 'NONE',  ( -0.1213397459621556500, -0.06716878364870326700, 0.0000000000000000000 ) ) ;
#120 = CARTESIAN_POINT ( 'NONE',  ( 0.1206698729810778400, -0.06466878364870319600, 0.2500000000000000000 ) ) ;
#121 = CARTESIAN_POINT ( 'NONE',  ( 0.0000000000000000000, 0.1443375672974065200, 0.2500000000000000000 ) ) ;
#122 = CARTESIAN_POINT ( 'NONE',  ( 0.1206698729810778400, -0.06466878364870319600, 0.0000000000000000000 ) ) ;
#123 = CARTESIAN_POINT ( 'NONE',  ( 0.0000000000000000000, 0.1443375672974065200, 0.0000000000000000000 ) ) ;
#124 = CARTESIAN_POINT ( 'NONE',  ( -0.1206698729810778400, -0.06466878364870326500, 0.0000000000000000000 ) ) ;
#125 = CARTESIAN_POINT ( 'NONE',  ( -0.1206698729810778400, -0.06466878364870326500, 0.2500000000000000000 ) ) ;
#126 = CARTESIAN_POINT ( 'NONE',  ( 0.1163397459621556600, -0.07216878364870318900, 0.2450000000000000000 ) ) ;
#127 = CARTESIAN_POINT ( 'NONE',  ( 0.1163397459621556600, -0.07216878364870318900, 0.005000000000000014800 ) ) ;
#128 = CARTESIAN_POINT ( 'NONE',  ( -0.1192686781502901700, -0.07216878364870325800, 0.002071067811865489600 ) ) ;
#129 = CARTESIAN_POINT ( 'NONE',  ( 0.1213397459621556600, -0.06716878364870319800, 0.2500000000000000000 ) ) ;
#130 = CARTESIAN_POINT ( 'NONE',  ( -0.1163397459621556400, -0.07216878364870325800, 0.005000000000000014800 ) ) ;
#131 = DIRECTION ( 'NONE',  ( -0.0000000000000000000, -0.0000000000000000000, -1.000000000000000000 ) ) ;
#132 = CARTESIAN_POINT ( 'NONE',  ( 0.0000000000000000000, 0.1443375672974065200, 0.2500000000000000000 ) ) ;
#133 = CARTESIAN_POINT ( 'NONE',  ( 1.834949068475788500E-017, -0.06716878364870322600, 0.0000000000000000000 ) ) ;
#134 = LINE ( 'NONE', #132, #63 ) ;
#135 = DIRECTION ( 'NONE',  ( -0.0000000000000000000, -0.0000000000000000000, -1.000000000000000000 ) ) ;
#136 = DIRECTION ( 'NONE',  ( -1.000000000000000000, -2.731847993664262700E-016, 0.0000000000000000000 ) ) ;
#137 = CARTESIAN_POINT ( 'NONE',  ( -0.1206698729810778100, -0.06466878364870323700, 0.2500000000000000000 ) ) ;
#138 = LINE ( 'NONE', #137, #68 ) ;
#139 = DIRECTION ( 'NONE',  ( -0.0000000000000000000, -0.0000000000000000000, 1.000000000000000000 ) ) ;
#140 = DIRECTION ( 'NONE',  ( -0.4999999999999998300, -0.8660254037844386000, 0.0000000000000000000 ) ) ;
#141 = CARTESIAN_POINT ( 'NONE',  ( 0.1213397459621556600, -0.06716878364870319800, 0.0000000000000000000 ) ) ;
#142 = LINE ( 'NONE', #143, #61 ) ;
#143 = CARTESIAN_POINT ( 'NONE',  ( 0.0000000000000000000, 0.1443375672974065200, 0.0000000000000000000 ) ) ;
#144 = LINE ( 'NONE', #146, #66 ) ;
#145 = DIRECTION ( 'NONE',  ( -0.4999999999999998300, -0.8660254037844386000, 0.0000000000000000000 ) ) ;
#146 = CARTESIAN_POINT ( 'NONE',  ( 0.0000000000000000000, 0.1443375672974065200, 0.2500000000000000000 ) ) ;
#147 = ORIENTED_EDGE ( 'NONE', *, *, #74, .T. ) ;
#148 = CARTESIAN_POINT ( 'NONE',  ( -0.1213397459621556000, -0.07009771583683778500, 1.564823109496468300E-017 ) ) ;
#149 = ORIENTED_EDGE ( 'NONE', *, *, #75, .T. ) ;
#150 = ORIENTED_EDGE ( 'NONE', *, *, #254, .T. ) ;
#151 = ORIENTED_EDGE ( 'NONE', *, *, #72, .F. ) ;
#152 = ORIENTED_EDGE ( 'NONE', *, *, #73, .T. ) ;
#153 = ORIENTED_EDGE ( 'NONE', *, *, #75, .F. ) ;
#154 = ORIENTED_EDGE ( 'NONE', *, *, #234, .T. ) ;
#155 = ORIENTED_EDGE ( 'NONE', *, *, #241, .F. ) ;
#156 = ORIENTED_EDGE ( 'NONE', *, *, #240, .T. ) ;
#157 = ORIENTED_EDGE ( 'NONE', *, *, #237, .F. ) ;
#158 = ORIENTED_EDGE ( 'NONE', *, *, #235, .F. ) ;
#159 = ORIENTED_EDGE ( 'NONE', *, *, #259, .F. ) ;
#160 = ORIENTED_EDGE ( 'NONE', *, *, #236, .T. ) ;
#161 = ORIENTED_EDGE ( 'NONE', *, *, #232, .F. ) ;
#162 = ORIENTED_EDGE ( 'NONE', *, *, #250, .F. ) ;
#163 = ORIENTED_EDGE ( 'NONE', *, *, #240, .F. ) ;
#164 = ORIENTED_EDGE ( 'NONE', *, *, #251, .F. ) ;
#165 = ORIENTED_EDGE ( 'NONE', *, *, #236, .F. ) ;
#166 = ORIENTED_EDGE ( 'NONE', *, *, #243, .F. ) ;
#167 = EDGE_LOOP ( 'NONE', ( #201, #199, #200, #198 ) ) ;
#168 = EDGE_LOOP ( 'NONE', ( #155, #154, #197, #153 ) ) ;
#169 = EDGE_LOOP ( 'NONE', ( #152, #147, #151, #149 ) ) ;
#170 = EDGE_LOOP ( 'NONE', ( #215, #216, #150, #212 ) ) ;
#171 = EDGE_LOOP ( 'NONE', ( #202, #166, #165, #164, #163, #161 ) ) ;
#172 = EDGE_LOOP ( 'NONE', ( #207, #205, #206, #203, #204 ) ) ;
#173 = EDGE_LOOP ( 'NONE', ( #217, #214, #213, #209, #208 ) ) ;
#174 = EDGE_LOOP ( 'NONE', ( #156, #182, #181, #157 ) ) ;
#175 = EDGE_LOOP ( 'NONE', ( #179, #178, #177, #180 ) ) ;
#176 = EDGE_LOOP ( 'NONE', ( #160, #159, #158, #162 ) ) ;
#177 = ORIENTED_EDGE ( 'NONE', *, *, #74, .F. ) ;
#178 = ORIENTED_EDGE ( 'NONE', *, *, #247, .F. ) ;
#179 = ORIENTED_EDGE ( 'NONE', *, *, #248, .F. ) ;
#180 = ORIENTED_EDGE ( 'NONE', *, *, #238, .F. ) ;
#181 = ORIENTED_EDGE ( 'NONE', *, *, #239, .F. ) ;
#182 = ORIENTED_EDGE ( 'NONE', *, *, #254, .F. ) ;
#183 = VERTEX_POINT ( 'NONE', #141 ) ;
#184 = VERTEX_POINT ( 'NONE', #129 ) ;
#185 = VERTEX_POINT ( 'NONE', #127 ) ;
#186 = VERTEX_POINT ( 'NONE', #126 ) ;
#187 = VERTEX_POINT ( 'NONE', #125 ) ;
#188 = VERTEX_POINT ( 'NONE', #124 ) ;
#189 = VERTEX_POINT ( 'NONE', #123 ) ;
#190 = VERTEX_POINT ( 'NONE', #122 ) ;
#191 = VERTEX_POINT ( 'NONE', #121 ) ;
#192 = VERTEX_POINT ( 'NONE', #120 ) ;
#193 = VERTEX_POINT ( 'NONE', #119 ) ;
#194 = VERTEX_POINT ( 'NONE', #118 ) ;
#195 = VERTEX_POINT ( 'NONE', #117 ) ;
#196 = VERTEX_POINT ( 'NONE', #114 ) ;
#197 = ORIENTED_EDGE ( 'NONE', *, *, #242, .T. ) ;
#198 = ORIENTED_EDGE ( 'NONE', *, *, #257, .F. ) ;
#199 = ORIENTED_EDGE ( 'NONE', *, *, #248, .T. ) ;
#200 = ORIENTED_EDGE ( 'NONE', *, *, #239, .T. ) ;
#201 = ORIENTED_EDGE ( 'NONE', *, *, #235, .T. ) ;
#202 = ORIENTED_EDGE ( 'NONE', *, *, #234, .F. ) ;
#203 = ORIENTED_EDGE ( 'NONE', *, *, #242, .F. ) ;
#204 = ORIENTED_EDGE ( 'NONE', *, *, #232, .T. ) ;
#205 = ORIENTED_EDGE ( 'NONE', *, *, #238, .T. ) ;
#206 = ORIENTED_EDGE ( 'NONE', *, *, #73, .F. ) ;
#207 = ORIENTED_EDGE ( 'NONE', *, *, #237, .T. ) ;
#208 = ORIENTED_EDGE ( 'NONE', *, *, #241, .T. ) ;
#209 = ORIENTED_EDGE ( 'NONE', *, *, #243, .T. ) ;
#210 = DIRECTION ( 'NONE',  ( 1.000000000000000000, 0.0000000000000000000, 0.0000000000000000000 ) ) ;
#211 = CARTESIAN_POINT ( 'NONE',  ( -0.1213397459621556500, -0.06716878364870326700, 0.0000000000000000000 ) ) ;
#212 = ORIENTED_EDGE ( 'NONE', *, *, #251, .T. ) ;
#213 = ORIENTED_EDGE ( 'NONE', *, *, #259, .T. ) ;
#214 = ORIENTED_EDGE ( 'NONE', *, *, #247, .T. ) ;
#215 = ORIENTED_EDGE ( 'NONE', *, *, #250, .T. ) ;
#216 = ORIENTED_EDGE ( 'NONE', *, *, #257, .T. ) ;
#217 = ORIENTED_EDGE ( 'NONE', *, *, #72, .T. ) ;
#218 =( BOUNDED_CURVE ( )  B_SPLINE_CURVE ( 3, ( #98, #97, #96, #105 ),
 .UNSPECIFIED., .F., .F. ) 
 B_SPLINE_CURVE_WITH_KNOTS ( ( 4, 4 ),
 ( 1.570796326794896600, 3.141592653589793100 ),
 .UNSPECIFIED. ) 
 CURVE ( )  GEOMETRIC_REPRESENTATION_ITEM ( )  RATIONAL_B_SPLINE_CURVE ( ( 1.000000000000000000, 0.8047378541243649400, 0.8047378541243649400, 1.000000000000000000 ) ) 
 REPRESENTATION_ITEM ( '' )  );
#219 =( BOUNDED_CURVE ( )  B_SPLINE_CURVE ( 3, ( #106, #103, #102, #100 ),
 .UNSPECIFIED., .F., .F. ) 
 B_SPLINE_CURVE_WITH_KNOTS ( ( 4, 4 ),
 ( 4.712388980384689700, 6.283185307179586200 ),
 .UNSPECIFIED. ) 
 CURVE ( )  GEOMETRIC_REPRESENTATION_ITEM ( )  RATIONAL_B_SPLINE_CURVE ( ( 1.000000000000000000, 0.8047378541243649400, 0.8047378541243649400, 1.000000000000000000 ) ) 
 REPRESENTATION_ITEM ( '' )  );
#220 =( BOUNDED_CURVE ( )  B_SPLINE_CURVE ( 3, ( #211, #148, #128, #130 ),
 .UNSPECIFIED., .F., .F. ) 
 B_SPLINE_CURVE_WITH_KNOTS ( ( 4, 4 ),
 ( 3.141592653589793100, 4.712388980384689700 ),
 .UNSPECIFIED. ) 
 CURVE ( )  GEOMETRIC_REPRESENTATION_ITEM ( )  RATIONAL_B_SPLINE_CURVE ( ( 1.000000000000000000, 0.8047378541243649400, 0.8047378541243649400, 1.000000000000000000 ) ) 
 REPRESENTATION_ITEM ( '' )  );
#221 =( BOUNDED_CURVE ( )  B_SPLINE_CURVE ( 3, ( #99, #318, #327, #331 ),
 .UNSPECIFIED., .F., .T. ) 
 B_SPLINE_CURVE_WITH_KNOTS ( ( 4, 4 ),
 ( 2.731847993664263200E-016, 1.570796326794896800 ),
 .UNSPECIFIED. ) 
 CURVE ( )  GEOMETRIC_REPRESENTATION_ITEM ( )  RATIONAL_B_SPLINE_CURVE ( ( 1.000000000000000000, 0.8047378541243649400, 0.8047378541243649400, 1.000000000000000000 ) ) 
 REPRESENTATION_ITEM ( '' )  );
#222 = CARTESIAN_POINT ( 'NONE',  ( -0.1163397459621556400, -0.06716878364870326700, 0.2500000000000000000 ) ) ;
#223 = DIRECTION ( 'NONE',  ( 0.0000000000000000000, 0.0000000000000000000, -1.000000000000000000 ) ) ;
#224 = CARTESIAN_POINT ( 'NONE',  ( -0.1163397459621556400, -0.06716878364870326700, 0.2500000000000000000 ) ) ;
#225 = DIRECTION ( 'NONE',  ( 0.0000000000000000000, 1.000000000000000000, 0.0000000000000000000 ) ) ;
#226 = CARTESIAN_POINT ( 'NONE',  ( -0.1250000000000000300, -0.07216878364870325800, 0.005000000000000014800 ) ) ;
#227 = LINE ( 'NONE', #226, #289 ) ;
#228 = DIRECTION ( 'NONE',  ( 0.0000000000000000000, 0.0000000000000000000, -1.000000000000000000 ) ) ;
#229 = DIRECTION ( 'NONE',  ( 1.000000000000000000, 2.731847993664262700E-016, -0.0000000000000000000 ) ) ;
#230 = DIRECTION ( 'NONE',  ( -1.000000000000000000, 0.0000000000000000000, 0.0000000000000000000 ) ) ;
#231 = DIRECTION ( 'NONE',  ( -1.000000000000000000, 0.0000000000000000000, 0.0000000000000000000 ) ) ;
#232 = EDGE_CURVE ( 'NONE', #190, #183, #71, .T. ) ;
#233 = ADVANCED_FACE ( 'NONE', ( #70 ), #69, .T. ) ;
#234 = EDGE_CURVE ( 'NONE', #192, #190, #110, .T. ) ;
#235 = EDGE_CURVE ( 'NONE', #196, #195, #219, .T. ) ;
#236 = EDGE_CURVE ( 'NONE', #186, #184, #218, .T. ) ;
#237 = EDGE_CURVE ( 'NONE', #183, #193, #101, .T. ) ;
#238 = EDGE_CURVE ( 'NONE', #193, #188, #15, .T. ) ;
#239 = EDGE_CURVE ( 'NONE', #193, #194, #220, .T. ) ;
#240 = EDGE_CURVE ( 'NONE', #183, #185, #221, .T. ) ;
#241 = EDGE_CURVE ( 'NONE', #192, #191, #323, .T. ) ;
#242 = EDGE_CURVE ( 'NONE', #190, #189, #316, .T. ) ;
#243 = EDGE_CURVE ( 'NONE', #184, #192, #17, .T. ) ;
#244 = ADVANCED_FACE ( 'NONE', ( #269 ), #328, .F. ) ;
#245 = ADVANCED_FACE ( 'NONE', ( #272 ), #315, .F. ) ;
#246 = ADVANCED_FACE ( 'NONE', ( #285 ), #311, .F. ) ;
#247 = EDGE_CURVE ( 'NONE', #187, #195, #18, .T. ) ;
#248 = EDGE_CURVE ( 'NONE', #195, #193, #91, .T. ) ;
#249 = ADVANCED_FACE ( 'NONE', ( #287 ), #307, .T. ) ;
#250 = EDGE_CURVE ( 'NONE', #186, #196, #83, .T. ) ;
#251 = EDGE_CURVE ( 'NONE', #185, #186, #81, .T. ) ;
#252 = ADVANCED_FACE ( 'NONE', ( #288 ), #302, .T. ) ;
#253 = PRODUCT_DEFINITION ( 'UNKNOWN', '', #293, #263 ) ;
#254 = EDGE_CURVE ( 'NONE', #194, #185, #227, .T. ) ;
#255 = ADVANCED_FACE ( 'NONE', ( #300 ), #294, .T. ) ;
#256 = ADVANCED_FACE ( 'NONE', ( #270 ), #274, .T. ) ;
#257 = EDGE_CURVE ( 'NONE', #196, #194, #9, .T. ) ;
#258 = ADVANCED_FACE ( 'NONE', ( #286 ), #6, .T. ) ;
#259 = EDGE_CURVE ( 'NONE', #195, #184, #2, .T. ) ;
#260 = ADVANCED_FACE ( 'NONE', ( #301 ), #26, .F. ) ;
#261 = MANIFOLD_SOLID_BREP ( 'Fillet1', #65 ) ;
#262 = PRODUCT_DEFINITION_SHAPE ( 'NONE', 'NONE',  #253 ) ;
#263 = PRODUCT_DEFINITION_CONTEXT ( 'detailed design', #77, 'design' ) ;
#264 = AXIS2_PLACEMENT_3D ( 'NONE', #314, #312, #309 ) ;
#265 = VECTOR ( 'NONE', #7, 39.37007874015748100 ) ;
#266 = AXIS2_PLACEMENT_3D ( 'NONE', #319, #322, #332 ) ;
#267 = VECTOR ( 'NONE', #136, 39.37007874015748100 ) ;
#268 = MECHANICAL_DESIGN_GEOMETRIC_PRESENTATION_REPRESENTATION (  '', ( #308 ), #78 ) ;
#269 = FACE_OUTER_BOUND ( 'NONE', #169, .T. ) ;
#270 = FACE_OUTER_BOUND ( 'NONE', #167, .T. ) ;
#271 = VECTOR ( 'NONE', #317, 39.37007874015748900 ) ;
#272 = FACE_OUTER_BOUND ( 'NONE', #170, .T. ) ;
#273 = AXIS2_PLACEMENT_3D ( 'NONE', #333, #330, #329 ) ;
#274 = CYLINDRICAL_SURFACE ( 'NONE', #284, 0.004999999999999997500 ) ;
#275 = LENGTH_MEASURE_WITH_UNIT ( LENGTH_MEASURE( 0.02539999999999999900 ), #51 );
#276 = AXIS2_PLACEMENT_3D ( 'NONE', #320, #92, #93 ) ;
#277 = VECTOR ( 'NONE', #325, 39.37007874015748900 ) ;
#278 = AXIS2_PLACEMENT_3D ( 'NONE', #82, #94, #225 ) ;
#279 = MECHANICAL_DESIGN_GEOMETRIC_PRESENTATION_REPRESENTATION (  '', ( #283 ), #20 ) ;
#280 = PRESENTATION_LAYER_ASSIGNMENT (  '', '', ( #283 ) ) ;
#281 = PRESENTATION_LAYER_ASSIGNMENT (  '', '', ( #308 ) ) ;
#282 = AXIS2_PLACEMENT_3D ( 'NONE', #55, #56, #57 ) ;
#283 = STYLED_ITEM ( 'NONE', ( #50 ), #22 ) ;
#284 = AXIS2_PLACEMENT_3D ( 'NONE', #222, #223, #231 ) ;
#285 = FACE_OUTER_BOUND ( 'NONE', #172, .T. ) ;
#286 = FACE_OUTER_BOUND ( 'NONE', #173, .T. ) ;
#287 = FACE_OUTER_BOUND ( 'NONE', #176, .T. ) ;
#288 = FACE_OUTER_BOUND ( 'NONE', #174, .T. ) ;
#289 = VECTOR ( 'NONE', #229, 39.37007874015748100 ) ;
#290 = AXIS2_PLACEMENT_3D ( 'NONE', #25, #28, #29 ) ;
#291 = LENGTH_MEASURE_WITH_UNIT ( LENGTH_MEASURE( 0.02539999999999999900 ), #40 );
#292 = VECTOR ( 'NONE', #27, 39.37007874015748100 ) ;
#293 = PRODUCT_DEFINITION_FORMATION_WITH_SPECIFIED_SOURCE ( 'ANY', '', #14, .NOT_KNOWN. ) ;
#294 = CYLINDRICAL_SURFACE ( 'NONE', #297, 0.004999999999999997500 ) ;
#295 = LENGTH_MEASURE_WITH_UNIT ( LENGTH_MEASURE( 0.02539999999999999900 ), #36 );
#296 = AXIS2_PLACEMENT_3D ( 'NONE', #321, #313, #310 ) ;
#297 = AXIS2_PLACEMENT_3D ( 'NONE', #224, #228, #230 ) ;
#298 = AXIS2_PLACEMENT_3D ( 'NONE', #5, #4, #3 ) ;
#299 = VECTOR ( 'NONE', #95, 39.37007874015748100 ) ;
#300 = FACE_OUTER_BOUND ( 'NONE', #175, .T. ) ;
#301 = FACE_OUTER_BOUND ( 'NONE', #168, .T. ) ;
#302 = CYLINDRICAL_SURFACE ( 'NONE', #278, 0.004999999999999997500 ) ;
#303 = VECTOR ( 'NONE', #107, 39.37007874015748100 ) ;
#304 = VECTOR ( 'NONE', #88, 39.37007874015748100 ) ;
#305 = AXIS2_PLACEMENT_3D ( 'NONE', #90, #85, #84 ) ;
#306 = VECTOR ( 'NONE', #87, 39.37007874015748100 ) ;
#307 = CYLINDRICAL_SURFACE ( 'NONE', #305, 0.004999999999999997500 ) ;
#308 = STYLED_ITEM ( 'NONE', ( #35 ), #261 ) ;
#309 = DIRECTION ( 'NONE',  ( -1.000000000000000000, -2.731847993664262700E-016, 0.0000000000000000000 ) ) ;
#310 = DIRECTION ( 'NONE',  ( 1.000000000000000000, 0.0000000000000000000, -0.0000000000000000000 ) ) ;
#311 = PLANE ( 'NONE',  #296 ) ;
#312 = DIRECTION ( 'NONE',  ( -2.731847993664262700E-016, 1.000000000000000000, 0.0000000000000000000 ) ) ;
#313 = DIRECTION ( 'NONE',  ( 0.0000000000000000000, 0.0000000000000000000, 1.000000000000000000 ) ) ;
#314 = CARTESIAN_POINT ( 'NONE',  ( -0.1250000000000000300, -0.07216878364870325800, 0.2500000000000000000 ) ) ;
#315 = PLANE ( 'NONE',  #264 ) ;
#316 = LINE ( 'NONE', #326, #277 ) ;
#317 = DIRECTION ( 'NONE',  ( -0.4999999999999998900, 0.8660254037844386000, 0.0000000000000000000 ) ) ;
#318 = CARTESIAN_POINT ( 'NONE',  ( 0.1213397459621556000, -0.07009771583683771500, 1.680706159004993600E-017 ) ) ;
#319 = CARTESIAN_POINT ( 'NONE',  ( 0.0000000000000000000, 0.1443375672974065200, 0.2500000000000000000 ) ) ;
#320 = CARTESIAN_POINT ( 'NONE',  ( -0.1163397459621556400, -0.06716878364870326700, 0.2500000000000000000 ) ) ;
#321 = CARTESIAN_POINT ( 'NONE',  ( 0.0000000000000000000, 0.0000000000000000000, 0.0000000000000000000 ) ) ;
#322 = DIRECTION ( 'NONE',  ( 0.8660254037844388200, -0.4999999999999998300, 0.0000000000000000000 ) ) ;
#323 = LINE ( 'NONE', #324, #271 ) ;
#324 = CARTESIAN_POINT ( 'NONE',  ( 0.1250000000000000300, -0.07216878364870318900, 0.2500000000000000000 ) ) ;
#325 = DIRECTION ( 'NONE',  ( -0.4999999999999998900, 0.8660254037844386000, 0.0000000000000000000 ) ) ;
#326 = CARTESIAN_POINT ( 'NONE',  ( 0.1250000000000000300, -0.07216878364870318900, 0.0000000000000000000 ) ) ;
#327 = CARTESIAN_POINT ( 'NONE',  ( 0.1192686781502901700, -0.07216878364870318900, 0.002071067811865491700 ) ) ;
#328 = PLANE ( 'NONE',  #266 ) ;
#329 = DIRECTION ( 'NONE',  ( 1.000000000000000000, 0.0000000000000000000, 0.0000000000000000000 ) ) ;
#330 = DIRECTION ( 'NONE',  ( 0.0000000000000000000, 0.0000000000000000000, 1.000000000000000000 ) ) ;
#331 = CARTESIAN_POINT ( 'NONE',  ( 0.1163397459621556600, -0.07216878364870318900, 0.005000000000000014800 ) ) ;
#332 = DIRECTION ( 'NONE',  ( 0.4999999999999998300, 0.8660254037844388200, 0.0000000000000000000 ) ) ;
#333 = CARTESIAN_POINT ( 'NONE',  ( 0.1163397459621556600, -0.06716878364870319800, 0.2500000000000000000 ) ) ;
ENDSEC;
END-ISO-10303-21;
