ISO-10303-21;
HEADER;
FILE_DESCRIPTION (( 'STEP AP214' ),
    '1' );
FILE_NAME ('P250BF.step',
    '2012-04-20T21:01:20',
    ( '' ),
    ( '' ),
    'SwSTEP 2.0',
    'SolidWorks 2012',
    '' );
FILE_SCHEMA (( 'AUTOMOTIVE_DESIGN' ));
ENDSEC;

DATA;
#1 = DIMENSIONAL_EXPONENTS ( 1.000000000000000000, 0.0000000000000000000, 0.0000000000000000000, 0.0000000000000000000, 0.0000000000000000000, 0.0000000000000000000, 0.0000000000000000000 ) ;
#2 = DIMENSIONAL_EXPONENTS ( 1.000000000000000000, 0.0000000000000000000, 0.0000000000000000000, 0.0000000000000000000, 0.0000000000000000000, 0.0000000000000000000, 0.0000000000000000000 ) ;
#3 = DIMENSIONAL_EXPONENTS ( 1.000000000000000000, 0.0000000000000000000, 0.0000000000000000000, 0.0000000000000000000, 0.0000000000000000000, 0.0000000000000000000, 0.0000000000000000000 ) ;
#4 = PRODUCT ( 'P250BF', 'P250BF', '', ( #208 ) ) ;
#5 = UNCERTAINTY_MEASURE_WITH_UNIT (LENGTH_MEASURE( 1.000000000000000100E-005 ), #43, 'distance_accuracy_value', 'NONE');
#6 = ADVANCED_BREP_SHAPE_REPRESENTATION ( 'P250BF', ( #186, #189 ), #19 ) ;
#7 = UNCERTAINTY_MEASURE_WITH_UNIT (LENGTH_MEASURE( 1.000000000000000100E-005 ), #28, 'distance_accuracy_value', 'NONE');
#8 = UNCERTAINTY_MEASURE_WITH_UNIT (LENGTH_MEASURE( 1.000000000000000100E-005 ), #39, 'distance_accuracy_value', 'NONE');
#9 = FACE_OUTER_BOUND ( 'NONE', #135, .T. ) ;
#10 = AXIS2_PLACEMENT_3D ( 'NONE', #94, #93, #92 ) ;
#11 = CLOSED_SHELL ( 'NONE', ( #179, #171, #174, #185, #178, #172 ) ) ;
#12 = VECTOR ( 'NONE', #105, 39.37007874015748100 ) ;
#13 = FACE_OUTER_BOUND ( 'NONE', #134, .T. ) ;
#14 = VECTOR ( 'NONE', #102, 39.37007874015748100 ) ;
#15 = VECTOR ( 'NONE', #108, 39.37007874015748100 ) ;
#16 = VECTOR ( 'NONE', #99, 39.37007874015748100 ) ;
#17 = VECTOR ( 'NONE', #112, 39.37007874015748100 ) ;
#18 =( GEOMETRIC_REPRESENTATION_CONTEXT ( 3 ) GLOBAL_UNCERTAINTY_ASSIGNED_CONTEXT ( ( #5 ) ) GLOBAL_UNIT_ASSIGNED_CONTEXT ( ( #43, #42, #41 ) ) REPRESENTATION_CONTEXT ( 'NONE', 'WORKASPACE' ) );
#19 =( GEOMETRIC_REPRESENTATION_CONTEXT ( 3 ) GLOBAL_UNCERTAINTY_ASSIGNED_CONTEXT ( ( #8 ) ) GLOBAL_UNIT_ASSIGNED_CONTEXT ( ( #39, #38, #37 ) ) REPRESENTATION_CONTEXT ( 'NONE', 'WORKASPACE' ) );
#20 =( GEOMETRIC_REPRESENTATION_CONTEXT ( 3 ) GLOBAL_UNCERTAINTY_ASSIGNED_CONTEXT ( ( #7 ) ) GLOBAL_UNIT_ASSIGNED_CONTEXT ( ( #28, #24, #23 ) ) REPRESENTATION_CONTEXT ( 'NONE', 'WORKASPACE' ) );
#21 = APPLICATION_CONTEXT ( 'automotive_design' ) ;
#22 = APPLICATION_CONTEXT ( 'automotive_design' ) ;
#23 =( NAMED_UNIT ( * ) SI_UNIT ( $, .STERADIAN. ) SOLID_ANGLE_UNIT ( ) );
#24 =( NAMED_UNIT ( * ) PLANE_ANGLE_UNIT ( ) SI_UNIT ( $, .RADIAN. ) );
#25 = CARTESIAN_POINT ( 'NONE',  ( 0.0000000000000000000, 0.0000000000000000000, 0.0000000000000000000 ) ) ;
#26 = ORIENTED_EDGE ( 'NONE', *, *, #180, .T. ) ;
#27 = ORIENTED_EDGE ( 'NONE', *, *, #182, .F. ) ;
#28 =( CONVERSION_BASED_UNIT ( 'INCH', #194 ) LENGTH_UNIT ( ) NAMED_UNIT ( #2 ) );
#29 = ORIENTED_EDGE ( 'NONE', *, *, #184, .F. ) ;
#30 =( LENGTH_UNIT ( ) NAMED_UNIT ( * ) SI_UNIT ( $, .METRE. ) );
#31 = PRESENTATION_STYLE_ASSIGNMENT (( #33 ) ) ;
#32 = SURFACE_STYLE_FILL_AREA ( #36 ) ;
#33 = SURFACE_STYLE_USAGE ( .BOTH. , #34 ) ;
#34 = SURFACE_SIDE_STYLE ('',( #32 ) ) ;
#35 = FILL_AREA_STYLE_COLOUR ( '', #175 ) ;
#36 = FILL_AREA_STYLE ('',( #35 ) ) ;
#37 =( NAMED_UNIT ( * ) SI_UNIT ( $, .STERADIAN. ) SOLID_ANGLE_UNIT ( ) );
#38 =( NAMED_UNIT ( * ) PLANE_ANGLE_UNIT ( ) SI_UNIT ( $, .RADIAN. ) );
#39 =( CONVERSION_BASED_UNIT ( 'INCH', #198 ) LENGTH_UNIT ( ) NAMED_UNIT ( #3 ) );
#40 =( LENGTH_UNIT ( ) NAMED_UNIT ( * ) SI_UNIT ( $, .METRE. ) );
#41 =( NAMED_UNIT ( * ) SI_UNIT ( $, .STERADIAN. ) SOLID_ANGLE_UNIT ( ) );
#42 =( NAMED_UNIT ( * ) PLANE_ANGLE_UNIT ( ) SI_UNIT ( $, .RADIAN. ) );
#43 =( CONVERSION_BASED_UNIT ( 'INCH', #196 ) LENGTH_UNIT ( ) NAMED_UNIT ( #1 ) );
#44 =( LENGTH_UNIT ( ) NAMED_UNIT ( * ) SI_UNIT ( $, .METRE. ) );
#45 = PRESENTATION_STYLE_ASSIGNMENT (( #46 ) ) ;
#46 = SURFACE_STYLE_USAGE ( .BOTH. , #47 ) ;
#47 = SURFACE_SIDE_STYLE ('',( #48 ) ) ;
#48 = SURFACE_STYLE_FILL_AREA ( #49 ) ;
#49 = FILL_AREA_STYLE ('',( #50 ) ) ;
#50 = FILL_AREA_STYLE_COLOUR ( '', #169 ) ;
#51 = DIRECTION ( 'NONE',  ( 0.0000000000000000000, 0.0000000000000000000, -1.000000000000000000 ) ) ;
#52 = DIRECTION ( 'NONE',  ( 1.000000000000000000, -0.0000000000000000000, 0.0000000000000000000 ) ) ;
#53 = CARTESIAN_POINT ( 'NONE',  ( 0.0000000000000000000, 0.2500000000000000000, 0.0000000000000000000 ) ) ;
#54 = DIRECTION ( 'NONE',  ( -1.000000000000000000, -0.0000000000000000000, 5.463695987328529400E-016 ) ) ;
#55 = CARTESIAN_POINT ( 'NONE',  ( 0.0000000000000000000, 0.2500000000000000000, -0.7499999999999998900 ) ) ;
#56 = LINE ( 'NONE', #55, #203 ) ;
#57 = DIRECTION ( 'NONE',  ( -1.000000000000000000, -0.0000000000000000000, 5.463695987328529400E-016 ) ) ;
#58 = CARTESIAN_POINT ( 'NONE',  ( 0.0000000000000000000, 0.0000000000000000000, -0.7499999999999998900 ) ) ;
#59 = LINE ( 'NONE', #58, #200 ) ;
#60 = VERTEX_POINT ( 'NONE', #122 ) ;
#61 = DIRECTION ( 'NONE',  ( -0.0000000000000000000, -1.000000000000000000, -0.0000000000000000000 ) ) ;
#62 = CARTESIAN_POINT ( 'NONE',  ( 0.0000000000000000000, 0.2500000000000000000, -0.7499999999999998900 ) ) ;
#63 = LINE ( 'NONE', #62, #195 ) ;
#64 = DIRECTION ( 'NONE',  ( -1.365923996832131600E-016, -0.0000000000000000000, -1.000000000000000000 ) ) ;
#65 = CARTESIAN_POINT ( 'NONE',  ( 0.2499999999999998900, 0.2500000000000000000, -0.7500000000000001100 ) ) ;
#66 = LINE ( 'NONE', #65, #201 ) ;
#67 = PLANE ( 'NONE',  #204 ) ;
#68 = DIRECTION ( 'NONE',  ( -0.0000000000000000000, -1.000000000000000000, -0.0000000000000000000 ) ) ;
#69 = CARTESIAN_POINT ( 'NONE',  ( 0.2499999999999998900, 0.2500000000000000000, -0.7500000000000001100 ) ) ;
#70 = LINE ( 'NONE', #69, #202 ) ;
#71 = DIRECTION ( 'NONE',  ( -1.000000000000000000, 0.0000000000000000000, -2.449293598294706400E-016 ) ) ;
#72 = DIRECTION ( 'NONE',  ( 2.449293598294706400E-016, 0.0000000000000000000, -1.000000000000000000 ) ) ;
#73 = CARTESIAN_POINT ( 'NONE',  ( 0.2500000000000000000, 0.2500000000000000000, 6.123233995736766000E-017 ) ) ;
#74 = PLANE ( 'NONE',  #157 ) ;
#75 = EDGE_LOOP ( 'NONE', ( #76, #133, #77, #131 ) ) ;
#76 = ORIENTED_EDGE ( 'NONE', *, *, #164, .T. ) ;
#77 = ORIENTED_EDGE ( 'NONE', *, *, #166, .F. ) ;
#78 = CARTESIAN_POINT ( 'NONE',  ( 0.0000000000000000000, 0.2500000000000000000, 0.0000000000000000000 ) ) ;
#79 = DIRECTION ( 'NONE',  ( 0.0000000000000000000, -1.000000000000000000, 0.0000000000000000000 ) ) ;
#80 = DIRECTION ( 'NONE',  ( 0.0000000000000000000, 0.0000000000000000000, -1.000000000000000000 ) ) ;
#81 = CARTESIAN_POINT ( 'NONE',  ( 0.2500000000000000000, 0.0000000000000000000, 6.123233995736766000E-017 ) ) ;
#82 = DIRECTION ( 'NONE',  ( 1.000000000000000000, -0.0000000000000000000, 2.449293598294706400E-016 ) ) ;
#83 = PLANE ( 'NONE',  #155 ) ;
#84 = DIRECTION ( 'NONE',  ( 5.463695987328529400E-016, -0.0000000000000000000, 1.000000000000000000 ) ) ;
#85 = LINE ( 'NONE', #81, #156 ) ;
#86 = DIRECTION ( 'NONE',  ( 1.000000000000000000, 0.0000000000000000000, -5.463695987328529400E-016 ) ) ;
#87 = DIRECTION ( 'NONE',  ( 1.000000000000000000, -0.0000000000000000000, 2.449293598294706400E-016 ) ) ;
#88 = PLANE ( 'NONE',  #160 ) ;
#89 = CARTESIAN_POINT ( 'NONE',  ( 0.0000000000000000000, 0.2500000000000000000, -0.7499999999999998900 ) ) ;
#90 = CARTESIAN_POINT ( 'NONE',  ( 0.2500000000000000000, 0.2500000000000000000, 6.123233995736766000E-017 ) ) ;
#91 = LINE ( 'NONE', #90, #161 ) ;
#92 = DIRECTION ( 'NONE',  ( 0.0000000000000000000, 0.0000000000000000000, -1.000000000000000000 ) ) ;
#93 = DIRECTION ( 'NONE',  ( 0.0000000000000000000, -1.000000000000000000, 0.0000000000000000000 ) ) ;
#94 = CARTESIAN_POINT ( 'NONE',  ( 0.0000000000000000000, 0.0000000000000000000, 0.0000000000000000000 ) ) ;
#95 = PLANE ( 'NONE',  #10 ) ;
#96 = DIRECTION ( 'NONE',  ( 1.365923996832131600E-016, 0.0000000000000000000, 1.000000000000000000 ) ) ;
#97 = DIRECTION ( 'NONE',  ( -1.000000000000000000, 0.0000000000000000000, 1.365923996832131600E-016 ) ) ;
#98 = CARTESIAN_POINT ( 'NONE',  ( 0.2499999999999998900, 0.2500000000000000000, -0.7500000000000001100 ) ) ;
#99 = DIRECTION ( 'NONE',  ( -0.0000000000000000000, -1.000000000000000000, -0.0000000000000000000 ) ) ;
#100 = CARTESIAN_POINT ( 'NONE',  ( 0.2500000000000000000, 0.2500000000000000000, 6.123233995736766000E-017 ) ) ;
#101 = LINE ( 'NONE', #100, #16 ) ;
#102 = DIRECTION ( 'NONE',  ( -0.0000000000000000000, -1.000000000000000000, -0.0000000000000000000 ) ) ;
#103 = CARTESIAN_POINT ( 'NONE',  ( 0.0000000000000000000, 0.2500000000000000000, 0.0000000000000000000 ) ) ;
#104 = LINE ( 'NONE', #103, #14 ) ;
#105 = DIRECTION ( 'NONE',  ( -0.0000000000000000000, -0.0000000000000000000, 1.000000000000000000 ) ) ;
#106 = CARTESIAN_POINT ( 'NONE',  ( 0.0000000000000000000, 0.2500000000000000000, 0.0000000000000000000 ) ) ;
#107 = LINE ( 'NONE', #106, #12 ) ;
#108 = DIRECTION ( 'NONE',  ( -1.365923996832131600E-016, -0.0000000000000000000, -1.000000000000000000 ) ) ;
#109 = CARTESIAN_POINT ( 'NONE',  ( 0.2499999999999998900, 0.0000000000000000000, -0.7500000000000001100 ) ) ;
#110 = LINE ( 'NONE', #109, #15 ) ;
#111 = PLANE ( 'NONE',  #159 ) ;
#112 = DIRECTION ( 'NONE',  ( -0.0000000000000000000, -0.0000000000000000000, 1.000000000000000000 ) ) ;
#113 = CARTESIAN_POINT ( 'NONE',  ( 0.0000000000000000000, 0.0000000000000000000, 0.0000000000000000000 ) ) ;
#114 = LINE ( 'NONE', #113, #17 ) ;
#115 = CARTESIAN_POINT ( 'NONE',  ( 0.2500000000000000000, 0.0000000000000000000, 6.123233995736766000E-017 ) ) ;
#116 = CARTESIAN_POINT ( 'NONE',  ( 0.2499999999999998900, 0.2500000000000000000, -0.7500000000000001100 ) ) ;
#117 = CARTESIAN_POINT ( 'NONE',  ( 0.0000000000000000000, 0.2500000000000000000, 0.0000000000000000000 ) ) ;
#118 = CARTESIAN_POINT ( 'NONE',  ( 0.2499999999999998900, 0.0000000000000000000, -0.7500000000000001100 ) ) ;
#119 = CARTESIAN_POINT ( 'NONE',  ( 0.2500000000000000000, 0.2500000000000000000, 6.123233995736766000E-017 ) ) ;
#120 = CARTESIAN_POINT ( 'NONE',  ( 0.0000000000000000000, 0.0000000000000000000, 0.0000000000000000000 ) ) ;
#121 = CARTESIAN_POINT ( 'NONE',  ( 0.0000000000000000000, 0.2500000000000000000, -0.7499999999999998900 ) ) ;
#122 = CARTESIAN_POINT ( 'NONE',  ( 0.0000000000000000000, 0.0000000000000000000, -0.7499999999999998900 ) ) ;
#123 = ORIENTED_EDGE ( 'NONE', *, *, #181, .F. ) ;
#124 = ORIENTED_EDGE ( 'NONE', *, *, #183, .F. ) ;
#125 = ORIENTED_EDGE ( 'NONE', *, *, #164, .F. ) ;
#126 = ORIENTED_EDGE ( 'NONE', *, *, #177, .F. ) ;
#127 = ORIENTED_EDGE ( 'NONE', *, *, #165, .F. ) ;
#128 = ORIENTED_EDGE ( 'NONE', *, *, #184, .T. ) ;
#129 = ORIENTED_EDGE ( 'NONE', *, *, #181, .T. ) ;
#130 = ORIENTED_EDGE ( 'NONE', *, *, #173, .T. ) ;
#131 = ORIENTED_EDGE ( 'NONE', *, *, #182, .T. ) ;
#132 = ORIENTED_EDGE ( 'NONE', *, *, #166, .T. ) ;
#133 = ORIENTED_EDGE ( 'NONE', *, *, #167, .F. ) ;
#134 = EDGE_LOOP ( 'NONE', ( #138, #27, #29, #26 ) ) ;
#135 = EDGE_LOOP ( 'NONE', ( #142, #148, #123, #139 ) ) ;
#136 = EDGE_LOOP ( 'NONE', ( #146, #140, #145, #144 ) ) ;
#137 = EDGE_LOOP ( 'NONE', ( #130, #129, #128, #132 ) ) ;
#138 = ORIENTED_EDGE ( 'NONE', *, *, #183, .T. ) ;
#139 = ORIENTED_EDGE ( 'NONE', *, *, #168, .T. ) ;
#140 = ORIENTED_EDGE ( 'NONE', *, *, #168, .F. ) ;
#141 = VERTEX_POINT ( 'NONE', #121 ) ;
#142 = ORIENTED_EDGE ( 'NONE', *, *, #165, .T. ) ;
#143 = VERTEX_POINT ( 'NONE', #120 ) ;
#144 = ORIENTED_EDGE ( 'NONE', *, *, #167, .T. ) ;
#145 = ORIENTED_EDGE ( 'NONE', *, *, #173, .F. ) ;
#146 = ORIENTED_EDGE ( 'NONE', *, *, #177, .T. ) ;
#147 = VERTEX_POINT ( 'NONE', #119 ) ;
#148 = ORIENTED_EDGE ( 'NONE', *, *, #180, .F. ) ;
#149 = VERTEX_POINT ( 'NONE', #118 ) ;
#150 = VERTEX_POINT ( 'NONE', #117 ) ;
#151 = EDGE_LOOP ( 'NONE', ( #126, #125, #124, #127 ) ) ;
#152 = VERTEX_POINT ( 'NONE', #116 ) ;
#153 = VERTEX_POINT ( 'NONE', #115 ) ;
#154 = FACE_OUTER_BOUND ( 'NONE', #136, .T. ) ;
#155 = AXIS2_PLACEMENT_3D ( 'NONE', #78, #79, #80 ) ;
#156 = VECTOR ( 'NONE', #82, 39.37007874015748100 ) ;
#157 = AXIS2_PLACEMENT_3D ( 'NONE', #73, #72, #71 ) ;
#158 = FACE_OUTER_BOUND ( 'NONE', #137, .T. ) ;
#159 = AXIS2_PLACEMENT_3D ( 'NONE', #98, #97, #96 ) ;
#160 = AXIS2_PLACEMENT_3D ( 'NONE', #89, #84, #86 ) ;
#161 = VECTOR ( 'NONE', #87, 39.37007874015748100 ) ;
#162 = FACE_OUTER_BOUND ( 'NONE', #75, .T. ) ;
#163 = FACE_OUTER_BOUND ( 'NONE', #151, .T. ) ;
#164 = EDGE_CURVE ( 'NONE', #60, #143, #114, .T. ) ;
#165 = EDGE_CURVE ( 'NONE', #153, #149, #110, .T. ) ;
#166 = EDGE_CURVE ( 'NONE', #141, #150, #107, .T. ) ;
#167 = EDGE_CURVE ( 'NONE', #150, #143, #104, .T. ) ;
#168 = EDGE_CURVE ( 'NONE', #147, #153, #101, .T. ) ;
#169 = COLOUR_RGB ( '',0.5686274509803921400, 0.5686274509803921400, 0.5882352941176470800 ) ;
#170 = PRODUCT_RELATED_PRODUCT_CATEGORY ( 'part', '', ( #4 ) ) ;
#171 = ADVANCED_FACE ( 'NONE', ( #9 ), #111, .F. ) ;
#172 = ADVANCED_FACE ( 'NONE', ( #163 ), #95, .T. ) ;
#173 = EDGE_CURVE ( 'NONE', #150, #147, #91, .T. ) ;
#174 = ADVANCED_FACE ( 'NONE', ( #13 ), #88, .F. ) ;
#175 = COLOUR_RGB ( '',0.5686274509803921400, 0.5686274509803921400, 0.5882352941176470800 ) ;
#176 = PRODUCT_DEFINITION ( 'UNKNOWN', '', #191, #187 ) ;
#177 = EDGE_CURVE ( 'NONE', #143, #153, #85, .T. ) ;
#178 = ADVANCED_FACE ( 'NONE', ( #158 ), #83, .F. ) ;
#179 = ADVANCED_FACE ( 'NONE', ( #154 ), #74, .F. ) ;
#180 = EDGE_CURVE ( 'NONE', #152, #149, #70, .T. ) ;
#181 = EDGE_CURVE ( 'NONE', #147, #152, #66, .T. ) ;
#182 = EDGE_CURVE ( 'NONE', #141, #60, #63, .T. ) ;
#183 = EDGE_CURVE ( 'NONE', #149, #60, #59, .T. ) ;
#184 = EDGE_CURVE ( 'NONE', #152, #141, #56, .T. ) ;
#185 = ADVANCED_FACE ( 'NONE', ( #162 ), #67, .F. ) ;
#186 = MANIFOLD_SOLID_BREP ( 'Boss-Extrude1', #11 ) ;
#187 = PRODUCT_DEFINITION_CONTEXT ( 'detailed design', #22, 'design' ) ;
#188 = PRODUCT_DEFINITION_SHAPE ( 'NONE', 'NONE',  #176 ) ;
#189 = AXIS2_PLACEMENT_3D ( 'NONE', #25, #207, #206 ) ;
#190 = PRESENTATION_LAYER_ASSIGNMENT (  '', '', ( #192 ) ) ;
#191 = PRODUCT_DEFINITION_FORMATION_WITH_SPECIFIED_SOURCE ( 'ANY', '', #4, .NOT_KNOWN. ) ;
#192 = STYLED_ITEM ( 'NONE', ( #31 ), #6 ) ;
#193 = STYLED_ITEM ( 'NONE', ( #45 ), #186 ) ;
#194 = LENGTH_MEASURE_WITH_UNIT ( LENGTH_MEASURE( 0.02539999999999999900 ), #30 );
#195 = VECTOR ( 'NONE', #61, 39.37007874015748100 ) ;
#196 = LENGTH_MEASURE_WITH_UNIT ( LENGTH_MEASURE( 0.02539999999999999900 ), #44 );
#197 = MECHANICAL_DESIGN_GEOMETRIC_PRESENTATION_REPRESENTATION (  '', ( #193 ), #18 ) ;
#198 = LENGTH_MEASURE_WITH_UNIT ( LENGTH_MEASURE( 0.02539999999999999900 ), #40 );
#199 = PRESENTATION_LAYER_ASSIGNMENT (  '', '', ( #193 ) ) ;
#200 = VECTOR ( 'NONE', #57, 39.37007874015748100 ) ;
#201 = VECTOR ( 'NONE', #64, 39.37007874015748100 ) ;
#202 = VECTOR ( 'NONE', #68, 39.37007874015748100 ) ;
#203 = VECTOR ( 'NONE', #54, 39.37007874015748100 ) ;
#204 = AXIS2_PLACEMENT_3D ( 'NONE', #53, #52, #51 ) ;
#205 = MECHANICAL_DESIGN_GEOMETRIC_PRESENTATION_REPRESENTATION (  '', ( #192 ), #20 ) ;
#206 = DIRECTION ( 'NONE',  ( 1.000000000000000000, 0.0000000000000000000, 0.0000000000000000000 ) ) ;
#207 = DIRECTION ( 'NONE',  ( 0.0000000000000000000, 0.0000000000000000000, 1.000000000000000000 ) ) ;
#208 = PRODUCT_CONTEXT ( 'NONE', #21, 'mechanical' ) ;
#209 = APPLICATION_PROTOCOL_DEFINITION ( 'draft international standard', 'automotive_design', 1998, #22 ) ;
#210 = SHAPE_DEFINITION_REPRESENTATION ( #188, #6 ) ;
#211 = APPLICATION_PROTOCOL_DEFINITION ( 'draft international standard', 'automotive_design', 1998, #21 ) ;
ENDSEC;
END-ISO-10303-21;
