ISO-10303-21;
HEADER;
FILE_DESCRIPTION (( 'STEP AP214' ),
    '1' );
FILE_NAME ('P250BH.step',
    '2012-04-20T21:01:22',
    ( '' ),
    ( '' ),
    'SwSTEP 2.0',
    'SolidWorks 2012',
    '' );
FILE_SCHEMA (( 'AUTOMOTIVE_DESIGN' ));
ENDSEC;

DATA;
#1 = DIMENSIONAL_EXPONENTS ( 1.000000000000000000, 0.0000000000000000000, 0.0000000000000000000, 0.0000000000000000000, 0.0000000000000000000, 0.0000000000000000000, 0.0000000000000000000 ) ;
#2 = PRODUCT ( 'P250BH', 'P250BH', '', ( #34 ) ) ;
#3 = DIMENSIONAL_EXPONENTS ( 1.000000000000000000, 0.0000000000000000000, 0.0000000000000000000, 0.0000000000000000000, 0.0000000000000000000, 0.0000000000000000000, 0.0000000000000000000 ) ;
#4 = DIMENSIONAL_EXPONENTS ( 1.000000000000000000, 0.0000000000000000000, 0.0000000000000000000, 0.0000000000000000000, 0.0000000000000000000, 0.0000000000000000000, 0.0000000000000000000 ) ;
#5 = VECTOR ( 'NONE', #101, 39.37007874015748100 ) ;
#6 = VECTOR ( 'NONE', #97, 39.37007874015748100 ) ;
#7 = AXIS2_PLACEMENT_3D ( 'NONE', #93, #92, #91 ) ;
#8 = LENGTH_MEASURE_WITH_UNIT ( LENGTH_MEASURE( 0.02539999999999999900 ), #107 );
#9 = STYLED_ITEM ( 'NONE', ( #108 ), #187 ) ;
#10 = FACE_OUTER_BOUND ( 'NONE', #142, .T. ) ;
#11 = MECHANICAL_DESIGN_GEOMETRIC_PRESENTATION_REPRESENTATION (  '', ( #9 ), #209 ) ;
#12 = CLOSED_SHELL ( 'NONE', ( #196, #195, #194, #203, #202, #201 ) ) ;
#13 = PRESENTATION_LAYER_ASSIGNMENT (  '', '', ( #9 ) ) ;
#14 = PRODUCT_DEFINITION ( 'UNKNOWN', '', #159, #186 ) ;
#15 = PRODUCT_RELATED_PRODUCT_CATEGORY ( 'part', '', ( #2 ) ) ;
#16 = APPLICATION_CONTEXT ( 'automotive_design' ) ;
#17 = APPLICATION_CONTEXT ( 'automotive_design' ) ;
#18 = UNCERTAINTY_MEASURE_WITH_UNIT (LENGTH_MEASURE( 1.000000000000000100E-005 ), #106, 'distance_accuracy_value', 'NONE');
#19 = UNCERTAINTY_MEASURE_WITH_UNIT (LENGTH_MEASURE( 1.000000000000000100E-005 ), #24, 'distance_accuracy_value', 'NONE');
#20 = UNCERTAINTY_MEASURE_WITH_UNIT (LENGTH_MEASURE( 1.000000000000000100E-005 ), #40, 'distance_accuracy_value', 'NONE');
#21 = ADVANCED_BREP_SHAPE_REPRESENTATION ( 'P250BH', ( #187, #177 ), #210 ) ;
#22 =( NAMED_UNIT ( * ) SI_UNIT ( $, .STERADIAN. ) SOLID_ANGLE_UNIT ( ) );
#23 =( NAMED_UNIT ( * ) PLANE_ANGLE_UNIT ( ) SI_UNIT ( $, .RADIAN. ) );
#24 =( CONVERSION_BASED_UNIT ( 'INCH', #160 ) LENGTH_UNIT ( ) NAMED_UNIT ( #4 ) );
#25 = PRESENTATION_STYLE_ASSIGNMENT (( #29 ) ) ;
#26 = SURFACE_STYLE_FILL_AREA ( #28 ) ;
#27 =( LENGTH_UNIT ( ) NAMED_UNIT ( * ) SI_UNIT ( $, .METRE. ) );
#28 = FILL_AREA_STYLE ('',( #31 ) ) ;
#29 = SURFACE_STYLE_USAGE ( .BOTH. , #30 ) ;
#30 = SURFACE_SIDE_STYLE ('',( #26 ) ) ;
#31 = FILL_AREA_STYLE_COLOUR ( '', #189 ) ;
#32 = APPLICATION_PROTOCOL_DEFINITION ( 'draft international standard', 'automotive_design', 1998, #16 ) ;
#33 = APPLICATION_PROTOCOL_DEFINITION ( 'draft international standard', 'automotive_design', 1998, #17 ) ;
#34 = PRODUCT_CONTEXT ( 'NONE', #16, 'mechanical' ) ;
#35 = DIRECTION ( 'NONE',  ( 1.000000000000000000, 0.0000000000000000000, 0.0000000000000000000 ) ) ;
#36 = DIRECTION ( 'NONE',  ( 0.0000000000000000000, 0.0000000000000000000, 1.000000000000000000 ) ) ;
#37 = CARTESIAN_POINT ( 'NONE',  ( 0.0000000000000000000, 0.0000000000000000000, 0.0000000000000000000 ) ) ;
#38 =( NAMED_UNIT ( * ) SI_UNIT ( $, .STERADIAN. ) SOLID_ANGLE_UNIT ( ) );
#39 =( NAMED_UNIT ( * ) PLANE_ANGLE_UNIT ( ) SI_UNIT ( $, .RADIAN. ) );
#40 =( CONVERSION_BASED_UNIT ( 'INCH', #185 ) LENGTH_UNIT ( ) NAMED_UNIT ( #3 ) );
#41 =( LENGTH_UNIT ( ) NAMED_UNIT ( * ) SI_UNIT ( $, .METRE. ) );
#42 = SHAPE_DEFINITION_REPRESENTATION ( #188, #21 ) ;
#43 = DIRECTION ( 'NONE',  ( -1.000000000000000000, -0.0000000000000000000, -0.0000000000000000000 ) ) ;
#44 = DIRECTION ( 'NONE',  ( -0.0000000000000000000, -1.000000000000000000, -0.0000000000000000000 ) ) ;
#45 = LINE ( 'NONE', #46, #168 ) ;
#46 = CARTESIAN_POINT ( 'NONE',  ( 0.0000000000000000000, 0.0000000000000000000, -1.000000000000000000 ) ) ;
#47 = DIRECTION ( 'NONE',  ( -1.365923996832131600E-016, -0.0000000000000000000, -1.000000000000000000 ) ) ;
#48 = CARTESIAN_POINT ( 'NONE',  ( 0.0000000000000000000, 0.2500000000000000000, -1.000000000000000000 ) ) ;
#49 = LINE ( 'NONE', #48, #167 ) ;
#50 = DIRECTION ( 'NONE',  ( -1.365923996832131600E-016, -0.0000000000000000000, -1.000000000000000000 ) ) ;
#51 = LINE ( 'NONE', #52, #170 ) ;
#52 = CARTESIAN_POINT ( 'NONE',  ( 0.2499999999999998600, 0.2500000000000000000, -1.000000000000000000 ) ) ;
#53 = CARTESIAN_POINT ( 'NONE',  ( 0.2499999999999998600, 0.0000000000000000000, -1.000000000000000000 ) ) ;
#54 = LINE ( 'NONE', #53, #171 ) ;
#55 = DIRECTION ( 'NONE',  ( -1.000000000000000000, -0.0000000000000000000, -0.0000000000000000000 ) ) ;
#56 = ORIENTED_EDGE ( 'NONE', *, *, #199, .F. ) ;
#57 = CARTESIAN_POINT ( 'NONE',  ( 0.0000000000000000000, 0.2500000000000000000, -1.000000000000000000 ) ) ;
#58 = LINE ( 'NONE', #57, #166 ) ;
#59 = DIRECTION ( 'NONE',  ( 0.0000000000000000000, 0.0000000000000000000, -1.000000000000000000 ) ) ;
#60 = DIRECTION ( 'NONE',  ( 1.000000000000000000, -0.0000000000000000000, 0.0000000000000000000 ) ) ;
#61 = CARTESIAN_POINT ( 'NONE',  ( 0.0000000000000000000, 0.2500000000000000000, 0.0000000000000000000 ) ) ;
#62 = PLANE ( 'NONE',  #165 ) ;
#63 = DIRECTION ( 'NONE',  ( 0.0000000000000000000, 0.0000000000000000000, -1.000000000000000000 ) ) ;
#64 = DIRECTION ( 'NONE',  ( 0.0000000000000000000, -1.000000000000000000, 0.0000000000000000000 ) ) ;
#65 = CARTESIAN_POINT ( 'NONE',  ( 0.0000000000000000000, 0.2500000000000000000, 0.0000000000000000000 ) ) ;
#66 = PLANE ( 'NONE',  #175 ) ;
#67 = DIRECTION ( 'NONE',  ( 0.0000000000000000000, 0.0000000000000000000, -1.000000000000000000 ) ) ;
#68 = DIRECTION ( 'NONE',  ( 0.0000000000000000000, -1.000000000000000000, 0.0000000000000000000 ) ) ;
#69 = CARTESIAN_POINT ( 'NONE',  ( 0.0000000000000000000, 0.0000000000000000000, 0.0000000000000000000 ) ) ;
#70 = DIRECTION ( 'NONE',  ( -0.0000000000000000000, -1.000000000000000000, -0.0000000000000000000 ) ) ;
#71 = CARTESIAN_POINT ( 'NONE',  ( 0.2499999999999998600, 0.2500000000000000000, -1.000000000000000000 ) ) ;
#72 = LINE ( 'NONE', #71, #163 ) ;
#73 = DIRECTION ( 'NONE',  ( -0.0000000000000000000, -1.000000000000000000, -0.0000000000000000000 ) ) ;
#74 = CARTESIAN_POINT ( 'NONE',  ( 0.0000000000000000000, 0.2500000000000000000, 0.0000000000000000000 ) ) ;
#75 = LINE ( 'NONE', #74, #176 ) ;
#76 = DIRECTION ( 'NONE',  ( 1.000000000000000000, -0.0000000000000000000, 2.449293598294706400E-016 ) ) ;
#77 = CARTESIAN_POINT ( 'NONE',  ( 0.2500000000000000000, 0.2500000000000000000, 6.123233995736766000E-017 ) ) ;
#78 = LINE ( 'NONE', #77, #173 ) ;
#79 = PLANE ( 'NONE',  #182 ) ;
#80 = DIRECTION ( 'NONE',  ( 1.000000000000000000, -0.0000000000000000000, 2.449293598294706400E-016 ) ) ;
#81 = CARTESIAN_POINT ( 'NONE',  ( 0.2500000000000000000, 0.0000000000000000000, 6.123233995736766000E-017 ) ) ;
#82 = LINE ( 'NONE', #81, #174 ) ;
#83 = DIRECTION ( 'NONE',  ( -1.000000000000000000, 0.0000000000000000000, -2.449293598294706400E-016 ) ) ;
#84 = DIRECTION ( 'NONE',  ( 2.449293598294706400E-016, 0.0000000000000000000, -1.000000000000000000 ) ) ;
#85 = CARTESIAN_POINT ( 'NONE',  ( 0.2500000000000000000, 0.2500000000000000000, 6.123233995736766000E-017 ) ) ;
#86 = PLANE ( 'NONE',  #179 ) ;
#87 = DIRECTION ( 'NONE',  ( 1.365923996832131600E-016, 0.0000000000000000000, 1.000000000000000000 ) ) ;
#88 = DIRECTION ( 'NONE',  ( -1.000000000000000000, 0.0000000000000000000, 1.365923996832131600E-016 ) ) ;
#89 = CARTESIAN_POINT ( 'NONE',  ( 0.2499999999999998600, 0.2500000000000000000, -1.000000000000000000 ) ) ;
#90 = PLANE ( 'NONE',  #183 ) ;
#91 = DIRECTION ( 'NONE',  ( 1.000000000000000000, 0.0000000000000000000, -0.0000000000000000000 ) ) ;
#92 = DIRECTION ( 'NONE',  ( 0.0000000000000000000, 0.0000000000000000000, 1.000000000000000000 ) ) ;
#93 = CARTESIAN_POINT ( 'NONE',  ( 0.0000000000000000000, 0.2500000000000000000, -1.000000000000000000 ) ) ;
#94 = DIRECTION ( 'NONE',  ( -0.0000000000000000000, -1.000000000000000000, -0.0000000000000000000 ) ) ;
#95 = CARTESIAN_POINT ( 'NONE',  ( 0.2500000000000000000, 0.2500000000000000000, 6.123233995736766000E-017 ) ) ;
#96 = LINE ( 'NONE', #95, #180 ) ;
#97 = DIRECTION ( 'NONE',  ( -0.0000000000000000000, -0.0000000000000000000, 1.000000000000000000 ) ) ;
#98 = CARTESIAN_POINT ( 'NONE',  ( 0.0000000000000000000, 0.2500000000000000000, 0.0000000000000000000 ) ) ;
#99 = LINE ( 'NONE', #98, #6 ) ;
#100 = PLANE ( 'NONE',  #7 ) ;
#101 = DIRECTION ( 'NONE',  ( -0.0000000000000000000, -0.0000000000000000000, 1.000000000000000000 ) ) ;
#102 = CARTESIAN_POINT ( 'NONE',  ( 0.0000000000000000000, 0.0000000000000000000, 0.0000000000000000000 ) ) ;
#103 = LINE ( 'NONE', #102, #5 ) ;
#104 =( NAMED_UNIT ( * ) SI_UNIT ( $, .STERADIAN. ) SOLID_ANGLE_UNIT ( ) );
#105 =( NAMED_UNIT ( * ) PLANE_ANGLE_UNIT ( ) SI_UNIT ( $, .RADIAN. ) );
#106 =( CONVERSION_BASED_UNIT ( 'INCH', #8 ) LENGTH_UNIT ( ) NAMED_UNIT ( #1 ) );
#107 =( LENGTH_UNIT ( ) NAMED_UNIT ( * ) SI_UNIT ( $, .METRE. ) );
#108 = PRESENTATION_STYLE_ASSIGNMENT (( #109 ) ) ;
#109 = SURFACE_STYLE_USAGE ( .BOTH. , #110 ) ;
#110 = SURFACE_SIDE_STYLE ('',( #111 ) ) ;
#111 = SURFACE_STYLE_FILL_AREA ( #112 ) ;
#112 = FILL_AREA_STYLE ('',( #113 ) ) ;
#113 = FILL_AREA_STYLE_COLOUR ( '', #190 ) ;
#114 = CARTESIAN_POINT ( 'NONE',  ( 0.2499999999999998600, 0.0000000000000000000, -1.000000000000000000 ) ) ;
#115 = CARTESIAN_POINT ( 'NONE',  ( 0.0000000000000000000, 0.2500000000000000000, 0.0000000000000000000 ) ) ;
#116 = CARTESIAN_POINT ( 'NONE',  ( 0.2500000000000000000, 0.0000000000000000000, 6.123233995736766000E-017 ) ) ;
#117 = CARTESIAN_POINT ( 'NONE',  ( 0.0000000000000000000, 0.0000000000000000000, 0.0000000000000000000 ) ) ;
#118 = CARTESIAN_POINT ( 'NONE',  ( 0.2499999999999998600, 0.2500000000000000000, -1.000000000000000000 ) ) ;
#119 = CARTESIAN_POINT ( 'NONE',  ( 0.0000000000000000000, 0.2500000000000000000, -1.000000000000000000 ) ) ;
#120 = CARTESIAN_POINT ( 'NONE',  ( 0.2500000000000000000, 0.2500000000000000000, 6.123233995736766000E-017 ) ) ;
#121 = CARTESIAN_POINT ( 'NONE',  ( 0.0000000000000000000, 0.0000000000000000000, -1.000000000000000000 ) ) ;
#122 = ORIENTED_EDGE ( 'NONE', *, *, #191, .T. ) ;
#123 = ORIENTED_EDGE ( 'NONE', *, *, #192, .F. ) ;
#124 = ORIENTED_EDGE ( 'NONE', *, *, #200, .T. ) ;
#125 = ORIENTED_EDGE ( 'NONE', *, *, #207, .F. ) ;
#126 = ORIENTED_EDGE ( 'NONE', *, *, #204, .F. ) ;
#127 = ORIENTED_EDGE ( 'NONE', *, *, #208, .T. ) ;
#128 = ORIENTED_EDGE ( 'NONE', *, *, #193, .T. ) ;
#129 = ORIENTED_EDGE ( 'NONE', *, *, #200, .F. ) ;
#130 = ORIENTED_EDGE ( 'NONE', *, *, #206, .F. ) ;
#131 = ORIENTED_EDGE ( 'NONE', *, *, #205, .T. ) ;
#132 = ORIENTED_EDGE ( 'NONE', *, *, #199, .T. ) ;
#133 = ORIENTED_EDGE ( 'NONE', *, *, #193, .F. ) ;
#134 = ORIENTED_EDGE ( 'NONE', *, *, #198, .F. ) ;
#135 = ORIENTED_EDGE ( 'NONE', *, *, #197, .T. ) ;
#136 = EDGE_LOOP ( 'NONE', ( #122, #56, #123, #157 ) ) ;
#137 = ORIENTED_EDGE ( 'NONE', *, *, #191, .F. ) ;
#138 = ORIENTED_EDGE ( 'NONE', *, *, #197, .F. ) ;
#139 = ORIENTED_EDGE ( 'NONE', *, *, #205, .F. ) ;
#140 = EDGE_LOOP ( 'NONE', ( #152, #150, #144, #154 ) ) ;
#141 = EDGE_LOOP ( 'NONE', ( #131, #129, #130, #128 ) ) ;
#142 = EDGE_LOOP ( 'NONE', ( #127, #125, #126, #124 ) ) ;
#143 = EDGE_LOOP ( 'NONE', ( #138, #137, #158, #139 ) ) ;
#144 = ORIENTED_EDGE ( 'NONE', *, *, #204, .T. ) ;
#145 = EDGE_LOOP ( 'NONE', ( #135, #133, #134, #132 ) ) ;
#146 = VERTEX_POINT ( 'NONE', #121 ) ;
#147 = VERTEX_POINT ( 'NONE', #120 ) ;
#148 = VERTEX_POINT ( 'NONE', #119 ) ;
#149 = VERTEX_POINT ( 'NONE', #118 ) ;
#150 = ORIENTED_EDGE ( 'NONE', *, *, #206, .T. ) ;
#151 = VERTEX_POINT ( 'NONE', #117 ) ;
#152 = ORIENTED_EDGE ( 'NONE', *, *, #198, .T. ) ;
#153 = VERTEX_POINT ( 'NONE', #116 ) ;
#154 = ORIENTED_EDGE ( 'NONE', *, *, #192, .T. ) ;
#155 = VERTEX_POINT ( 'NONE', #115 ) ;
#156 = VERTEX_POINT ( 'NONE', #114 ) ;
#157 = ORIENTED_EDGE ( 'NONE', *, *, #207, .T. ) ;
#158 = ORIENTED_EDGE ( 'NONE', *, *, #208, .F. ) ;
#159 = PRODUCT_DEFINITION_FORMATION_WITH_SPECIFIED_SOURCE ( 'ANY', '', #2, .NOT_KNOWN. ) ;
#160 = LENGTH_MEASURE_WITH_UNIT ( LENGTH_MEASURE( 0.02539999999999999900 ), #27 );
#161 = FACE_OUTER_BOUND ( 'NONE', #136, .T. ) ;
#162 = MECHANICAL_DESIGN_GEOMETRIC_PRESENTATION_REPRESENTATION (  '', ( #181 ), #211 ) ;
#163 = VECTOR ( 'NONE', #70, 39.37007874015748100 ) ;
#164 = PRESENTATION_LAYER_ASSIGNMENT (  '', '', ( #181 ) ) ;
#165 = AXIS2_PLACEMENT_3D ( 'NONE', #61, #60, #59 ) ;
#166 = VECTOR ( 'NONE', #55, 39.37007874015748100 ) ;
#167 = VECTOR ( 'NONE', #44, 39.37007874015748100 ) ;
#168 = VECTOR ( 'NONE', #43, 39.37007874015748100 ) ;
#169 = FACE_OUTER_BOUND ( 'NONE', #145, .T. ) ;
#170 = VECTOR ( 'NONE', #47, 39.37007874015748100 ) ;
#171 = VECTOR ( 'NONE', #50, 39.37007874015748100 ) ;
#172 = FACE_OUTER_BOUND ( 'NONE', #143, .T. ) ;
#173 = VECTOR ( 'NONE', #76, 39.37007874015748100 ) ;
#174 = VECTOR ( 'NONE', #80, 39.37007874015748100 ) ;
#175 = AXIS2_PLACEMENT_3D ( 'NONE', #65, #64, #63 ) ;
#176 = VECTOR ( 'NONE', #73, 39.37007874015748100 ) ;
#177 = AXIS2_PLACEMENT_3D ( 'NONE', #37, #36, #35 ) ;
#178 = FACE_OUTER_BOUND ( 'NONE', #140, .T. ) ;
#179 = AXIS2_PLACEMENT_3D ( 'NONE', #85, #84, #83 ) ;
#180 = VECTOR ( 'NONE', #94, 39.37007874015748100 ) ;
#181 = STYLED_ITEM ( 'NONE', ( #25 ), #21 ) ;
#182 = AXIS2_PLACEMENT_3D ( 'NONE', #69, #68, #67 ) ;
#183 = AXIS2_PLACEMENT_3D ( 'NONE', #89, #88, #87 ) ;
#184 = FACE_OUTER_BOUND ( 'NONE', #141, .T. ) ;
#185 = LENGTH_MEASURE_WITH_UNIT ( LENGTH_MEASURE( 0.02539999999999999900 ), #41 );
#186 = PRODUCT_DEFINITION_CONTEXT ( 'detailed design', #17, 'design' ) ;
#187 = MANIFOLD_SOLID_BREP ( 'Boss-Extrude1', #12 ) ;
#188 = PRODUCT_DEFINITION_SHAPE ( 'NONE', 'NONE',  #14 ) ;
#189 = COLOUR_RGB ( '',0.5686274509803921400, 0.5686274509803921400, 0.5882352941176470800 ) ;
#190 = COLOUR_RGB ( '',0.5686274509803921400, 0.5686274509803921400, 0.5882352941176470800 ) ;
#191 = EDGE_CURVE ( 'NONE', #146, #151, #103, .T. ) ;
#192 = EDGE_CURVE ( 'NONE', #148, #155, #99, .T. ) ;
#193 = EDGE_CURVE ( 'NONE', #147, #153, #96, .T. ) ;
#194 = ADVANCED_FACE ( 'NONE', ( #10 ), #100, .F. ) ;
#195 = ADVANCED_FACE ( 'NONE', ( #184 ), #90, .F. ) ;
#196 = ADVANCED_FACE ( 'NONE', ( #169 ), #86, .F. ) ;
#197 = EDGE_CURVE ( 'NONE', #151, #153, #82, .T. ) ;
#198 = EDGE_CURVE ( 'NONE', #155, #147, #78, .T. ) ;
#199 = EDGE_CURVE ( 'NONE', #155, #151, #75, .T. ) ;
#200 = EDGE_CURVE ( 'NONE', #149, #156, #72, .T. ) ;
#201 = ADVANCED_FACE ( 'NONE', ( #172 ), #79, .T. ) ;
#202 = ADVANCED_FACE ( 'NONE', ( #178 ), #66, .F. ) ;
#203 = ADVANCED_FACE ( 'NONE', ( #161 ), #62, .F. ) ;
#204 = EDGE_CURVE ( 'NONE', #149, #148, #58, .T. ) ;
#205 = EDGE_CURVE ( 'NONE', #153, #156, #54, .T. ) ;
#206 = EDGE_CURVE ( 'NONE', #147, #149, #51, .T. ) ;
#207 = EDGE_CURVE ( 'NONE', #148, #146, #49, .T. ) ;
#208 = EDGE_CURVE ( 'NONE', #156, #146, #45, .T. ) ;
#209 =( GEOMETRIC_REPRESENTATION_CONTEXT ( 3 ) GLOBAL_UNCERTAINTY_ASSIGNED_CONTEXT ( ( #18 ) ) GLOBAL_UNIT_ASSIGNED_CONTEXT ( ( #106, #105, #104 ) ) REPRESENTATION_CONTEXT ( 'NONE', 'WORKASPACE' ) );
#210 =( GEOMETRIC_REPRESENTATION_CONTEXT ( 3 ) GLOBAL_UNCERTAINTY_ASSIGNED_CONTEXT ( ( #20 ) ) GLOBAL_UNIT_ASSIGNED_CONTEXT ( ( #40, #39, #38 ) ) REPRESENTATION_CONTEXT ( 'NONE', 'WORKASPACE' ) );
#211 =( GEOMETRIC_REPRESENTATION_CONTEXT ( 3 ) GLOBAL_UNCERTAINTY_ASSIGNED_CONTEXT ( ( #19 ) ) GLOBAL_UNIT_ASSIGNED_CONTEXT ( ( #24, #23, #22 ) ) REPRESENTATION_CONTEXT ( 'NONE', 'WORKASPACE' ) );
ENDSEC;
END-ISO-10303-21;
