ISO-10303-21;
HEADER;
FILE_DESCRIPTION (( 'STEP AP214' ),
    '1' );
FILE_NAME ('P250DH.step',
    '2012-03-29T22:27:39',
    ( '' ),
    ( '' ),
    'SwSTEP 2.0',
    'SolidWorks 2012',
    '' );
FILE_SCHEMA (( 'AUTOMOTIVE_DESIGN' ));
ENDSEC;

DATA;
#1 = VECTOR ( 'NONE', #35, 39.37007874015748100 ) ;
#2 = DIRECTION ( 'NONE',  ( 1.000000000000000000, 0.0000000000000000000, 0.0000000000000000000 ) ) ;
#3 = DIRECTION ( 'NONE',  ( 0.0000000000000000000, 0.0000000000000000000, 1.000000000000000000 ) ) ;
#4 = CARTESIAN_POINT ( 'NONE',  ( 0.0000000000000000000, 0.0000000000000000000, 0.0000000000000000000 ) ) ;
#5 = EDGE_LOOP ( 'NONE', ( #111, #135, #110, #133 ) ) ;
#6 = EDGE_LOOP ( 'NONE', ( #132, #131, #130, #134 ) ) ;
#7 = EDGE_LOOP ( 'NONE', ( #128, #127, #126, #129 ) ) ;
#8 =( NAMED_UNIT ( * ) SI_UNIT ( $, .STERADIAN. ) SOLID_ANGLE_UNIT ( ) );
#9 =( NAMED_UNIT ( * ) PLANE_ANGLE_UNIT ( ) SI_UNIT ( $, .RADIAN. ) );
#10 =( CONVERSION_BASED_UNIT ( 'INCH', #180 ) LENGTH_UNIT ( ) NAMED_UNIT ( #141 ) );
#11 = APPLICATION_PROTOCOL_DEFINITION ( 'draft international standard', 'automotive_design', 1998, #174 ) ;
#12 =( LENGTH_UNIT ( ) NAMED_UNIT ( * ) SI_UNIT ( $, .METRE. ) );
#13 = PRESENTATION_STYLE_ASSIGNMENT (( #14 ) ) ;
#14 = SURFACE_STYLE_USAGE ( .BOTH. , #15 ) ;
#15 = SURFACE_SIDE_STYLE ('',( #16 ) ) ;
#16 = SURFACE_STYLE_FILL_AREA ( #17 ) ;
#17 = FILL_AREA_STYLE ('',( #18 ) ) ;
#18 = FILL_AREA_STYLE_COLOUR ( '', #198 ) ;
#19 = APPLICATION_PROTOCOL_DEFINITION ( 'draft international standard', 'automotive_design', 1998, #184 ) ;
#20 = SHAPE_DEFINITION_REPRESENTATION ( #156, #209 ) ;
#21 = EDGE_LOOP ( 'NONE', ( #122, #124, #123, #121 ) ) ;
#22 = PRODUCT_CONTEXT ( 'NONE', #184, 'mechanical' ) ;
#23 =( NAMED_UNIT ( * ) SI_UNIT ( $, .STERADIAN. ) SOLID_ANGLE_UNIT ( ) );
#24 =( NAMED_UNIT ( * ) PLANE_ANGLE_UNIT ( ) SI_UNIT ( $, .RADIAN. ) );
#25 = EDGE_LOOP ( 'NONE', ( #136, #138, #137, #120 ) ) ;
#26 = EDGE_LOOP ( 'NONE', ( #89, #91, #90, #125 ) ) ;
#27 =( CONVERSION_BASED_UNIT ( 'INCH', #144 ) LENGTH_UNIT ( ) NAMED_UNIT ( #140 ) );
#28 =( LENGTH_UNIT ( ) NAMED_UNIT ( * ) SI_UNIT ( $, .METRE. ) );
#29 = DIRECTION ( 'NONE',  ( -1.000000000000000000, -0.0000000000000000000, -0.0000000000000000000 ) ) ;
#30 = CARTESIAN_POINT ( 'NONE',  ( 0.0000000000000000000, 0.0000000000000000000, -1.000000000000000000 ) ) ;
#31 = LINE ( 'NONE', #30, #176 ) ;
#32 = DIRECTION ( 'NONE',  ( 1.000000000000000000, -0.0000000000000000000, -6.123233995736766000E-017 ) ) ;
#33 = CARTESIAN_POINT ( 'NONE',  ( 0.5000000000000000000, 0.0000000000000000000, -3.061616997868383000E-017 ) ) ;
#34 = LINE ( 'NONE', #33, #175 ) ;
#35 = DIRECTION ( 'NONE',  ( -0.0000000000000000000, -1.000000000000000000, -0.0000000000000000000 ) ) ;
#36 = CARTESIAN_POINT ( 'NONE',  ( 0.5000000000000000000, 0.2500000000000000000, -3.061616997868383000E-017 ) ) ;
#37 = LINE ( 'NONE', #36, #1 ) ;
#38 = DIRECTION ( 'NONE',  ( -0.0000000000000000000, -0.0000000000000000000, 1.000000000000000000 ) ) ;
#39 = CARTESIAN_POINT ( 'NONE',  ( 0.0000000000000000000, 0.2500000000000000000, 0.0000000000000000000 ) ) ;
#40 = LINE ( 'NONE', #39, #165 ) ;
#41 = DIRECTION ( 'NONE',  ( -1.000000000000000000, -0.0000000000000000000, -0.0000000000000000000 ) ) ;
#42 = CARTESIAN_POINT ( 'NONE',  ( 0.0000000000000000000, 0.2500000000000000000, -1.000000000000000000 ) ) ;
#43 = LINE ( 'NONE', #42, #139 ) ;
#44 = DIRECTION ( 'NONE',  ( 1.000000000000000000, -0.0000000000000000000, -6.123233995736766000E-017 ) ) ;
#45 = CARTESIAN_POINT ( 'NONE',  ( 0.5000000000000000000, 0.2500000000000000000, -3.061616997868383000E-017 ) ) ;
#46 = LINE ( 'NONE', #45, #185 ) ;
#47 = DIRECTION ( 'NONE',  ( -0.0000000000000000000, -1.000000000000000000, -0.0000000000000000000 ) ) ;
#48 = CARTESIAN_POINT ( 'NONE',  ( 0.0000000000000000000, 0.2500000000000000000, 0.0000000000000000000 ) ) ;
#49 = LINE ( 'NONE', #48, #183 ) ;
#50 = DIRECTION ( 'NONE',  ( -1.365923996832131600E-016, -0.0000000000000000000, -1.000000000000000000 ) ) ;
#51 = CARTESIAN_POINT ( 'NONE',  ( 0.4999999999999998300, 0.0000000000000000000, -1.000000000000000000 ) ) ;
#52 = LINE ( 'NONE', #51, #148 ) ;
#53 = DIRECTION ( 'NONE',  ( -0.0000000000000000000, -1.000000000000000000, -0.0000000000000000000 ) ) ;
#54 = CARTESIAN_POINT ( 'NONE',  ( 0.4999999999999998300, 0.2500000000000000000, -1.000000000000000000 ) ) ;
#55 = LINE ( 'NONE', #54, #153 ) ;
#56 = DIRECTION ( 'NONE',  ( -1.365923996832131600E-016, -0.0000000000000000000, -1.000000000000000000 ) ) ;
#57 = CARTESIAN_POINT ( 'NONE',  ( 0.4999999999999998300, 0.2500000000000000000, -1.000000000000000000 ) ) ;
#58 = LINE ( 'NONE', #57, #173 ) ;
#59 = DIRECTION ( 'NONE',  ( -0.0000000000000000000, -0.0000000000000000000, 1.000000000000000000 ) ) ;
#60 = CARTESIAN_POINT ( 'NONE',  ( 0.0000000000000000000, 0.0000000000000000000, 0.0000000000000000000 ) ) ;
#61 = LINE ( 'NONE', #60, #145 ) ;
#62 = DIRECTION ( 'NONE',  ( 0.0000000000000000000, 0.0000000000000000000, -1.000000000000000000 ) ) ;
#63 = DIRECTION ( 'NONE',  ( 0.0000000000000000000, -1.000000000000000000, -0.0000000000000000000 ) ) ;
#64 = CARTESIAN_POINT ( 'NONE',  ( 0.0000000000000000000, 0.0000000000000000000, 0.0000000000000000000 ) ) ;
#65 = PLANE ( 'NONE',  #152 ) ;
#66 = DIRECTION ( 'NONE',  ( 0.0000000000000000000, 0.0000000000000000000, -1.000000000000000000 ) ) ;
#67 = DIRECTION ( 'NONE',  ( 0.0000000000000000000, -1.000000000000000000, -0.0000000000000000000 ) ) ;
#68 = CARTESIAN_POINT ( 'NONE',  ( 0.0000000000000000000, 0.2500000000000000000, 0.0000000000000000000 ) ) ;
#69 = PLANE ( 'NONE',  #168 ) ;
#70 = DIRECTION ( 'NONE',  ( 0.0000000000000000000, 0.0000000000000000000, -1.000000000000000000 ) ) ;
#71 = DIRECTION ( 'NONE',  ( 1.000000000000000000, -0.0000000000000000000, 0.0000000000000000000 ) ) ;
#72 = CARTESIAN_POINT ( 'NONE',  ( 0.0000000000000000000, 0.2500000000000000000, 0.0000000000000000000 ) ) ;
#73 = PLANE ( 'NONE',  #151 ) ;
#74 = DIRECTION ( 'NONE',  ( 1.000000000000000000, 0.0000000000000000000, -0.0000000000000000000 ) ) ;
#75 = DIRECTION ( 'NONE',  ( 0.0000000000000000000, 0.0000000000000000000, 1.000000000000000000 ) ) ;
#76 = CARTESIAN_POINT ( 'NONE',  ( 0.0000000000000000000, 0.2500000000000000000, -1.000000000000000000 ) ) ;
#77 = PLANE ( 'NONE',  #162 ) ;
#78 = DIRECTION ( 'NONE',  ( 1.365923996832131600E-016, 0.0000000000000000000, 1.000000000000000000 ) ) ;
#79 = DIRECTION ( 'NONE',  ( -1.000000000000000000, 0.0000000000000000000, 1.365923996832131600E-016 ) ) ;
#80 = CARTESIAN_POINT ( 'NONE',  ( 0.4999999999999998300, 0.2500000000000000000, -1.000000000000000000 ) ) ;
#81 = PLANE ( 'NONE',  #147 ) ;
#82 = DIRECTION ( 'NONE',  ( -1.000000000000000000, 0.0000000000000000000, 6.123233995736766000E-017 ) ) ;
#83 = DIRECTION ( 'NONE',  ( -6.123233995736766000E-017, 0.0000000000000000000, -1.000000000000000000 ) ) ;
#84 = CARTESIAN_POINT ( 'NONE',  ( 0.5000000000000000000, 0.2500000000000000000, -3.061616997868383000E-017 ) ) ;
#85 = PLANE ( 'NONE',  #169 ) ;
#86 = DIRECTION ( 'NONE',  ( -0.0000000000000000000, -1.000000000000000000, -0.0000000000000000000 ) ) ;
#87 = CARTESIAN_POINT ( 'NONE',  ( 0.0000000000000000000, 0.2500000000000000000, -1.000000000000000000 ) ) ;
#88 = LINE ( 'NONE', #87, #167 ) ;
#89 = ORIENTED_EDGE ( 'NONE', *, *, #207, .T. ) ;
#90 = ORIENTED_EDGE ( 'NONE', *, *, #203, .F. ) ;
#91 = ORIENTED_EDGE ( 'NONE', *, *, #186, .F. ) ;
#92 =( NAMED_UNIT ( * ) SI_UNIT ( $, .STERADIAN. ) SOLID_ANGLE_UNIT ( ) );
#93 =( NAMED_UNIT ( * ) PLANE_ANGLE_UNIT ( ) SI_UNIT ( $, .RADIAN. ) );
#94 =( CONVERSION_BASED_UNIT ( 'INCH', #159 ) LENGTH_UNIT ( ) NAMED_UNIT ( #142 ) );
#95 =( LENGTH_UNIT ( ) NAMED_UNIT ( * ) SI_UNIT ( $, .METRE. ) );
#96 = PRESENTATION_STYLE_ASSIGNMENT (( #97 ) ) ;
#97 = SURFACE_STYLE_USAGE ( .BOTH. , #98 ) ;
#98 = SURFACE_SIDE_STYLE ('',( #99 ) ) ;
#99 = SURFACE_STYLE_FILL_AREA ( #100 ) ;
#100 = FILL_AREA_STYLE ('',( #101 ) ) ;
#101 = FILL_AREA_STYLE_COLOUR ( '', #189 ) ;
#102 = CARTESIAN_POINT ( 'NONE',  ( 0.5000000000000000000, 0.0000000000000000000, -3.061616997868383000E-017 ) ) ;
#103 = CARTESIAN_POINT ( 'NONE',  ( 0.0000000000000000000, 0.2500000000000000000, 0.0000000000000000000 ) ) ;
#104 = CARTESIAN_POINT ( 'NONE',  ( 0.0000000000000000000, 0.2500000000000000000, -1.000000000000000000 ) ) ;
#105 = CARTESIAN_POINT ( 'NONE',  ( 0.4999999999999998300, 0.0000000000000000000, -1.000000000000000000 ) ) ;
#106 = CARTESIAN_POINT ( 'NONE',  ( 0.5000000000000000000, 0.2500000000000000000, -3.061616997868383000E-017 ) ) ;
#107 = CARTESIAN_POINT ( 'NONE',  ( 0.0000000000000000000, 0.0000000000000000000, -1.000000000000000000 ) ) ;
#108 = CARTESIAN_POINT ( 'NONE',  ( 0.4999999999999998300, 0.2500000000000000000, -1.000000000000000000 ) ) ;
#109 = CARTESIAN_POINT ( 'NONE',  ( 0.0000000000000000000, 0.0000000000000000000, 0.0000000000000000000 ) ) ;
#110 = ORIENTED_EDGE ( 'NONE', *, *, #204, .F. ) ;
#111 = ORIENTED_EDGE ( 'NONE', *, *, #196, .T. ) ;
#112 = VERTEX_POINT ( 'NONE', #109 ) ;
#113 = VERTEX_POINT ( 'NONE', #108 ) ;
#114 = VERTEX_POINT ( 'NONE', #107 ) ;
#115 = VERTEX_POINT ( 'NONE', #106 ) ;
#116 = VERTEX_POINT ( 'NONE', #105 ) ;
#117 = VERTEX_POINT ( 'NONE', #104 ) ;
#118 = VERTEX_POINT ( 'NONE', #103 ) ;
#119 = VERTEX_POINT ( 'NONE', #102 ) ;
#120 = ORIENTED_EDGE ( 'NONE', *, *, #201, .T. ) ;
#121 = ORIENTED_EDGE ( 'NONE', *, *, #205, .T. ) ;
#122 = ORIENTED_EDGE ( 'NONE', *, *, #200, .T. ) ;
#123 = ORIENTED_EDGE ( 'NONE', *, *, #197, .F. ) ;
#124 = ORIENTED_EDGE ( 'NONE', *, *, #199, .F. ) ;
#125 = ORIENTED_EDGE ( 'NONE', *, *, #199, .T. ) ;
#126 = ORIENTED_EDGE ( 'NONE', *, *, #207, .F. ) ;
#127 = ORIENTED_EDGE ( 'NONE', *, *, #196, .F. ) ;
#128 = ORIENTED_EDGE ( 'NONE', *, *, #206, .F. ) ;
#129 = ORIENTED_EDGE ( 'NONE', *, *, #200, .F. ) ;
#130 = ORIENTED_EDGE ( 'NONE', *, *, #203, .T. ) ;
#131 = ORIENTED_EDGE ( 'NONE', *, *, #197, .T. ) ;
#132 = ORIENTED_EDGE ( 'NONE', *, *, #202, .T. ) ;
#133 = ORIENTED_EDGE ( 'NONE', *, *, #186, .T. ) ;
#134 = ORIENTED_EDGE ( 'NONE', *, *, #204, .T. ) ;
#135 = ORIENTED_EDGE ( 'NONE', *, *, #201, .F. ) ;
#136 = ORIENTED_EDGE ( 'NONE', *, *, #206, .T. ) ;
#137 = ORIENTED_EDGE ( 'NONE', *, *, #202, .F. ) ;
#138 = ORIENTED_EDGE ( 'NONE', *, *, #205, .F. ) ;
#139 = VECTOR ( 'NONE', #41, 39.37007874015748100 ) ;
#140 = DIMENSIONAL_EXPONENTS ( 1.000000000000000000, 0.0000000000000000000, 0.0000000000000000000, 0.0000000000000000000, 0.0000000000000000000, 0.0000000000000000000, 0.0000000000000000000 ) ;
#141 = DIMENSIONAL_EXPONENTS ( 1.000000000000000000, 0.0000000000000000000, 0.0000000000000000000, 0.0000000000000000000, 0.0000000000000000000, 0.0000000000000000000, 0.0000000000000000000 ) ;
#142 = DIMENSIONAL_EXPONENTS ( 1.000000000000000000, 0.0000000000000000000, 0.0000000000000000000, 0.0000000000000000000, 0.0000000000000000000, 0.0000000000000000000, 0.0000000000000000000 ) ;
#143 = PRODUCT ( 'P250DH', 'P250DH', '', ( #22 ) ) ;
#144 = LENGTH_MEASURE_WITH_UNIT ( LENGTH_MEASURE( 0.02539999999999999900 ), #28 );
#145 = VECTOR ( 'NONE', #59, 39.37007874015748100 ) ;
#146 = FACE_OUTER_BOUND ( 'NONE', #25, .T. ) ;
#147 = AXIS2_PLACEMENT_3D ( 'NONE', #80, #79, #78 ) ;
#148 = VECTOR ( 'NONE', #50, 39.37007874015748100 ) ;
#149 = FACE_OUTER_BOUND ( 'NONE', #7, .T. ) ;
#150 = FACE_OUTER_BOUND ( 'NONE', #6, .T. ) ;
#151 = AXIS2_PLACEMENT_3D ( 'NONE', #72, #71, #70 ) ;
#152 = AXIS2_PLACEMENT_3D ( 'NONE', #64, #63, #62 ) ;
#153 = VECTOR ( 'NONE', #53, 39.37007874015748100 ) ;
#154 = MANIFOLD_SOLID_BREP ( 'Boss-Extrude1', #158 ) ;
#155 = PRODUCT_DEFINITION_CONTEXT ( 'detailed design', #174, 'design' ) ;
#156 = PRODUCT_DEFINITION_SHAPE ( 'NONE', 'NONE',  #188 ) ;
#157 = PRESENTATION_LAYER_ASSIGNMENT (  '', '', ( #160 ) ) ;
#158 = CLOSED_SHELL ( 'NONE', ( #190, #191, #192, #193, #194, #195 ) ) ;
#159 = LENGTH_MEASURE_WITH_UNIT ( LENGTH_MEASURE( 0.02539999999999999900 ), #95 );
#160 = STYLED_ITEM ( 'NONE', ( #96 ), #154 ) ;
#161 = MECHANICAL_DESIGN_GEOMETRIC_PRESENTATION_REPRESENTATION (  '', ( #160 ), #170 ) ;
#162 = AXIS2_PLACEMENT_3D ( 'NONE', #76, #75, #74 ) ;
#163 = FACE_OUTER_BOUND ( 'NONE', #21, .T. ) ;
#164 = FACE_OUTER_BOUND ( 'NONE', #5, .T. ) ;
#165 = VECTOR ( 'NONE', #38, 39.37007874015748100 ) ;
#166 = FACE_OUTER_BOUND ( 'NONE', #26, .T. ) ;
#167 = VECTOR ( 'NONE', #86, 39.37007874015748100 ) ;
#168 = AXIS2_PLACEMENT_3D ( 'NONE', #68, #67, #66 ) ;
#169 = AXIS2_PLACEMENT_3D ( 'NONE', #84, #83, #82 ) ;
#170 =( GEOMETRIC_REPRESENTATION_CONTEXT ( 3 ) GLOBAL_UNCERTAINTY_ASSIGNED_CONTEXT ( ( #208 ) ) GLOBAL_UNIT_ASSIGNED_CONTEXT ( ( #94, #93, #92 ) ) REPRESENTATION_CONTEXT ( 'NONE', 'WORKASPACE' ) );
#171 =( GEOMETRIC_REPRESENTATION_CONTEXT ( 3 ) GLOBAL_UNCERTAINTY_ASSIGNED_CONTEXT ( ( #211 ) ) GLOBAL_UNIT_ASSIGNED_CONTEXT ( ( #27, #24, #23 ) ) REPRESENTATION_CONTEXT ( 'NONE', 'WORKASPACE' ) );
#172 =( GEOMETRIC_REPRESENTATION_CONTEXT ( 3 ) GLOBAL_UNCERTAINTY_ASSIGNED_CONTEXT ( ( #210 ) ) GLOBAL_UNIT_ASSIGNED_CONTEXT ( ( #10, #9, #8 ) ) REPRESENTATION_CONTEXT ( 'NONE', 'WORKASPACE' ) );
#173 = VECTOR ( 'NONE', #56, 39.37007874015748100 ) ;
#174 = APPLICATION_CONTEXT ( 'automotive_design' ) ;
#175 = VECTOR ( 'NONE', #32, 39.37007874015748100 ) ;
#176 = VECTOR ( 'NONE', #29, 39.37007874015748100 ) ;
#177 = STYLED_ITEM ( 'NONE', ( #13 ), #209 ) ;
#178 = PRESENTATION_LAYER_ASSIGNMENT (  '', '', ( #177 ) ) ;
#179 = MECHANICAL_DESIGN_GEOMETRIC_PRESENTATION_REPRESENTATION (  '', ( #177 ), #172 ) ;
#180 = LENGTH_MEASURE_WITH_UNIT ( LENGTH_MEASURE( 0.02539999999999999900 ), #12 );
#181 = AXIS2_PLACEMENT_3D ( 'NONE', #4, #3, #2 ) ;
#182 = PRODUCT_DEFINITION_FORMATION_WITH_SPECIFIED_SOURCE ( 'ANY', '', #143, .NOT_KNOWN. ) ;
#183 = VECTOR ( 'NONE', #47, 39.37007874015748100 ) ;
#184 = APPLICATION_CONTEXT ( 'automotive_design' ) ;
#185 = VECTOR ( 'NONE', #44, 39.37007874015748100 ) ;
#186 = EDGE_CURVE ( 'NONE', #117, #114, #88, .T. ) ;
#187 = PRODUCT_RELATED_PRODUCT_CATEGORY ( 'part', '', ( #143 ) ) ;
#188 = PRODUCT_DEFINITION ( 'UNKNOWN', '', #182, #155 ) ;
#189 = COLOUR_RGB ( '',0.5686274509803921400, 0.5686274509803921400, 0.5882352941176470800 ) ;
#190 = ADVANCED_FACE ( 'NONE', ( #146 ), #85, .F. ) ;
#191 = ADVANCED_FACE ( 'NONE', ( #163 ), #81, .F. ) ;
#192 = ADVANCED_FACE ( 'NONE', ( #166 ), #77, .F. ) ;
#193 = ADVANCED_FACE ( 'NONE', ( #164 ), #73, .F. ) ;
#194 = ADVANCED_FACE ( 'NONE', ( #150 ), #69, .F. ) ;
#195 = ADVANCED_FACE ( 'NONE', ( #149 ), #65, .T. ) ;
#196 = EDGE_CURVE ( 'NONE', #114, #112, #61, .T. ) ;
#197 = EDGE_CURVE ( 'NONE', #115, #113, #58, .T. ) ;
#198 = COLOUR_RGB ( '',0.5686274509803921400, 0.5686274509803921400, 0.5882352941176470800 ) ;
#199 = EDGE_CURVE ( 'NONE', #113, #116, #55, .T. ) ;
#200 = EDGE_CURVE ( 'NONE', #119, #116, #52, .T. ) ;
#201 = EDGE_CURVE ( 'NONE', #118, #112, #49, .T. ) ;
#202 = EDGE_CURVE ( 'NONE', #118, #115, #46, .T. ) ;
#203 = EDGE_CURVE ( 'NONE', #113, #117, #43, .T. ) ;
#204 = EDGE_CURVE ( 'NONE', #117, #118, #40, .T. ) ;
#205 = EDGE_CURVE ( 'NONE', #115, #119, #37, .T. ) ;
#206 = EDGE_CURVE ( 'NONE', #112, #119, #34, .T. ) ;
#207 = EDGE_CURVE ( 'NONE', #116, #114, #31, .T. ) ;
#208 = UNCERTAINTY_MEASURE_WITH_UNIT (LENGTH_MEASURE( 1.000000000000000100E-005 ), #94, 'distance_accuracy_value', 'NONE');
#209 = ADVANCED_BREP_SHAPE_REPRESENTATION ( 'P250DH', ( #154, #181 ), #171 ) ;
#210 = UNCERTAINTY_MEASURE_WITH_UNIT (LENGTH_MEASURE( 1.000000000000000100E-005 ), #10, 'distance_accuracy_value', 'NONE');
#211 = UNCERTAINTY_MEASURE_WITH_UNIT (LENGTH_MEASURE( 1.000000000000000100E-005 ), #27, 'distance_accuracy_value', 'NONE');
ENDSEC;
END-ISO-10303-21;
