ISO-10303-21;
HEADER;
FILE_DESCRIPTION (( 'STEP AP214' ),
    '1' );
FILE_NAME ('P250DH.step',
    '2012-04-20T21:01:27',
    ( '' ),
    ( '' ),
    'SwSTEP 2.0',
    'SolidWorks 2012',
    '' );
FILE_SCHEMA (( 'AUTOMOTIVE_DESIGN' ));
ENDSEC;

DATA;
#1 = DIMENSIONAL_EXPONENTS ( 1.000000000000000000, 0.0000000000000000000, 0.0000000000000000000, 0.0000000000000000000, 0.0000000000000000000, 0.0000000000000000000, 0.0000000000000000000 ) ;
#2 = PRODUCT ( 'P250DH', 'P250DH', '', ( #205 ) ) ;
#3 = DIMENSIONAL_EXPONENTS ( 1.000000000000000000, 0.0000000000000000000, 0.0000000000000000000, 0.0000000000000000000, 0.0000000000000000000, 0.0000000000000000000, 0.0000000000000000000 ) ;
#4 = DIMENSIONAL_EXPONENTS ( 1.000000000000000000, 0.0000000000000000000, 0.0000000000000000000, 0.0000000000000000000, 0.0000000000000000000, 0.0000000000000000000, 0.0000000000000000000 ) ;
#5 = VECTOR ( 'NONE', #101, 39.37007874015748100 ) ;
#6 = FACE_OUTER_BOUND ( 'NONE', #132, .T. ) ;
#7 = AXIS2_PLACEMENT_3D ( 'NONE', #95, #94, #93 ) ;
#8 = CLOSED_SHELL ( 'NONE', ( #188, #189, #182, #190, #194, #181 ) ) ;
#9 = VECTOR ( 'NONE', #86, 39.37007874015748100 ) ;
#10 = AXIS2_PLACEMENT_3D ( 'NONE', #99, #98, #97 ) ;
#11 = FACE_OUTER_BOUND ( 'NONE', #126, .T. ) ;
#12 = VECTOR ( 'NONE', #90, 39.37007874015748100 ) ;
#13 = FACE_OUTER_BOUND ( 'NONE', #128, .T. ) ;
#14 =( GEOMETRIC_REPRESENTATION_CONTEXT ( 3 ) GLOBAL_UNCERTAINTY_ASSIGNED_CONTEXT ( ( #151 ) ) GLOBAL_UNIT_ASSIGNED_CONTEXT ( ( #35, #34, #33 ) ) REPRESENTATION_CONTEXT ( 'NONE', 'WORKASPACE' ) );
#15 =( GEOMETRIC_REPRESENTATION_CONTEXT ( 3 ) GLOBAL_UNCERTAINTY_ASSIGNED_CONTEXT ( ( #152 ) ) GLOBAL_UNIT_ASSIGNED_CONTEXT ( ( #30, #28, #27 ) ) REPRESENTATION_CONTEXT ( 'NONE', 'WORKASPACE' ) );
#16 =( GEOMETRIC_REPRESENTATION_CONTEXT ( 3 ) GLOBAL_UNCERTAINTY_ASSIGNED_CONTEXT ( ( #150 ) ) GLOBAL_UNIT_ASSIGNED_CONTEXT ( ( #19, #58, #32 ) ) REPRESENTATION_CONTEXT ( 'NONE', 'WORKASPACE' ) );
#17 = APPLICATION_CONTEXT ( 'automotive_design' ) ;
#18 = APPLICATION_CONTEXT ( 'automotive_design' ) ;
#19 =( CONVERSION_BASED_UNIT ( 'INCH', #156 ) LENGTH_UNIT ( ) NAMED_UNIT ( #3 ) );
#20 =( LENGTH_UNIT ( ) NAMED_UNIT ( * ) SI_UNIT ( $, .METRE. ) );
#21 = PRESENTATION_STYLE_ASSIGNMENT (( #23 ) ) ;
#22 = SURFACE_STYLE_FILL_AREA ( #26 ) ;
#23 = SURFACE_STYLE_USAGE ( .BOTH. , #24 ) ;
#24 = SURFACE_SIDE_STYLE ('',( #22 ) ) ;
#25 = FILL_AREA_STYLE_COLOUR ( '', #192 ) ;
#26 = FILL_AREA_STYLE ('',( #25 ) ) ;
#27 =( NAMED_UNIT ( * ) SI_UNIT ( $, .STERADIAN. ) SOLID_ANGLE_UNIT ( ) );
#28 =( NAMED_UNIT ( * ) PLANE_ANGLE_UNIT ( ) SI_UNIT ( $, .RADIAN. ) );
#29 = VERTEX_POINT ( 'NONE', #111 ) ;
#30 =( CONVERSION_BASED_UNIT ( 'INCH', #160 ) LENGTH_UNIT ( ) NAMED_UNIT ( #1 ) );
#31 =( LENGTH_UNIT ( ) NAMED_UNIT ( * ) SI_UNIT ( $, .METRE. ) );
#32 =( NAMED_UNIT ( * ) SI_UNIT ( $, .STERADIAN. ) SOLID_ANGLE_UNIT ( ) );
#33 =( NAMED_UNIT ( * ) SI_UNIT ( $, .STERADIAN. ) SOLID_ANGLE_UNIT ( ) );
#34 =( NAMED_UNIT ( * ) PLANE_ANGLE_UNIT ( ) SI_UNIT ( $, .RADIAN. ) );
#35 =( CONVERSION_BASED_UNIT ( 'INCH', #157 ) LENGTH_UNIT ( ) NAMED_UNIT ( #4 ) );
#36 =( LENGTH_UNIT ( ) NAMED_UNIT ( * ) SI_UNIT ( $, .METRE. ) );
#37 = PRESENTATION_STYLE_ASSIGNMENT (( #38 ) ) ;
#38 = SURFACE_STYLE_USAGE ( .BOTH. , #39 ) ;
#39 = SURFACE_SIDE_STYLE ('',( #40 ) ) ;
#40 = SURFACE_STYLE_FILL_AREA ( #41 ) ;
#41 = FILL_AREA_STYLE ('',( #42 ) ) ;
#42 = FILL_AREA_STYLE_COLOUR ( '', #191 ) ;
#43 = DIRECTION ( 'NONE',  ( -1.000000000000000000, -0.0000000000000000000, -0.0000000000000000000 ) ) ;
#44 = CARTESIAN_POINT ( 'NONE',  ( 0.0000000000000000000, 0.0000000000000000000, -1.000000000000000000 ) ) ;
#45 = LINE ( 'NONE', #44, #167 ) ;
#46 = DIRECTION ( 'NONE',  ( -0.0000000000000000000, -0.0000000000000000000, 1.000000000000000000 ) ) ;
#47 = CARTESIAN_POINT ( 'NONE',  ( 0.0000000000000000000, 0.2500000000000000000, 0.0000000000000000000 ) ) ;
#48 = LINE ( 'NONE', #47, #159 ) ;
#49 = DIRECTION ( 'NONE',  ( -1.365923996832131600E-016, -0.0000000000000000000, -1.000000000000000000 ) ) ;
#50 = CARTESIAN_POINT ( 'NONE',  ( 0.4999999999999998300, 0.0000000000000000000, -1.000000000000000000 ) ) ;
#51 = LINE ( 'NONE', #50, #179 ) ;
#52 = DIRECTION ( 'NONE',  ( -1.000000000000000000, -0.0000000000000000000, -0.0000000000000000000 ) ) ;
#53 = CARTESIAN_POINT ( 'NONE',  ( 0.0000000000000000000, 0.2500000000000000000, -1.000000000000000000 ) ) ;
#54 = LINE ( 'NONE', #53, #178 ) ;
#55 = DIRECTION ( 'NONE',  ( -0.0000000000000000000, -0.0000000000000000000, 1.000000000000000000 ) ) ;
#56 = CARTESIAN_POINT ( 'NONE',  ( 0.0000000000000000000, 0.0000000000000000000, 0.0000000000000000000 ) ) ;
#57 = LINE ( 'NONE', #56, #166 ) ;
#58 =( NAMED_UNIT ( * ) PLANE_ANGLE_UNIT ( ) SI_UNIT ( $, .RADIAN. ) );
#59 = CARTESIAN_POINT ( 'NONE',  ( 0.0000000000000000000, 0.2500000000000000000, 0.0000000000000000000 ) ) ;
#60 = DIRECTION ( 'NONE',  ( 0.0000000000000000000, -1.000000000000000000, -0.0000000000000000000 ) ) ;
#61 = DIRECTION ( 'NONE',  ( 0.0000000000000000000, 0.0000000000000000000, -1.000000000000000000 ) ) ;
#62 = CARTESIAN_POINT ( 'NONE',  ( 0.4999999999999998300, 0.2500000000000000000, -1.000000000000000000 ) ) ;
#63 = DIRECTION ( 'NONE',  ( -1.365923996832131600E-016, -0.0000000000000000000, -1.000000000000000000 ) ) ;
#64 = PLANE ( 'NONE',  #171 ) ;
#65 = DIRECTION ( 'NONE',  ( 1.000000000000000000, -0.0000000000000000000, 0.0000000000000000000 ) ) ;
#66 = LINE ( 'NONE', #62, #158 ) ;
#67 = DIRECTION ( 'NONE',  ( 0.0000000000000000000, 0.0000000000000000000, -1.000000000000000000 ) ) ;
#68 = DIRECTION ( 'NONE',  ( 1.365923996832131600E-016, 0.0000000000000000000, 1.000000000000000000 ) ) ;
#69 = PLANE ( 'NONE',  #165 ) ;
#70 = CARTESIAN_POINT ( 'NONE',  ( 0.0000000000000000000, 0.2500000000000000000, 0.0000000000000000000 ) ) ;
#71 = DIRECTION ( 'NONE',  ( -1.000000000000000000, 0.0000000000000000000, 1.365923996832131600E-016 ) ) ;
#72 = CARTESIAN_POINT ( 'NONE',  ( 0.4999999999999998300, 0.2500000000000000000, -1.000000000000000000 ) ) ;
#73 = PLANE ( 'NONE',  #177 ) ;
#74 = DIRECTION ( 'NONE',  ( -1.000000000000000000, 0.0000000000000000000, 6.123233995736766000E-017 ) ) ;
#75 = DIRECTION ( 'NONE',  ( -6.123233995736766000E-017, 0.0000000000000000000, -1.000000000000000000 ) ) ;
#76 = CARTESIAN_POINT ( 'NONE',  ( 0.5000000000000000000, 0.2500000000000000000, -3.061616997868383000E-017 ) ) ;
#77 = DIRECTION ( 'NONE',  ( 1.000000000000000000, -0.0000000000000000000, -6.123233995736766000E-017 ) ) ;
#78 = CARTESIAN_POINT ( 'NONE',  ( 0.5000000000000000000, 0.0000000000000000000, -3.061616997868383000E-017 ) ) ;
#79 = LINE ( 'NONE', #78, #172 ) ;
#80 = DIRECTION ( 'NONE',  ( 1.000000000000000000, -0.0000000000000000000, -6.123233995736766000E-017 ) ) ;
#81 = CARTESIAN_POINT ( 'NONE',  ( 0.5000000000000000000, 0.2500000000000000000, -3.061616997868383000E-017 ) ) ;
#82 = LINE ( 'NONE', #81, #176 ) ;
#83 = DIRECTION ( 'NONE',  ( -0.0000000000000000000, -1.000000000000000000, -0.0000000000000000000 ) ) ;
#84 = CARTESIAN_POINT ( 'NONE',  ( 0.0000000000000000000, 0.2500000000000000000, 0.0000000000000000000 ) ) ;
#85 = LINE ( 'NONE', #84, #161 ) ;
#86 = DIRECTION ( 'NONE',  ( -0.0000000000000000000, -1.000000000000000000, -0.0000000000000000000 ) ) ;
#87 = CARTESIAN_POINT ( 'NONE',  ( 0.4999999999999998300, 0.2500000000000000000, -1.000000000000000000 ) ) ;
#88 = LINE ( 'NONE', #87, #9 ) ;
#89 = PLANE ( 'NONE',  #162 ) ;
#90 = DIRECTION ( 'NONE',  ( -0.0000000000000000000, -1.000000000000000000, -0.0000000000000000000 ) ) ;
#91 = CARTESIAN_POINT ( 'NONE',  ( 0.5000000000000000000, 0.2500000000000000000, -3.061616997868383000E-017 ) ) ;
#92 = LINE ( 'NONE', #91, #12 ) ;
#93 = DIRECTION ( 'NONE',  ( 1.000000000000000000, 0.0000000000000000000, -0.0000000000000000000 ) ) ;
#94 = DIRECTION ( 'NONE',  ( 0.0000000000000000000, 0.0000000000000000000, 1.000000000000000000 ) ) ;
#95 = CARTESIAN_POINT ( 'NONE',  ( 0.0000000000000000000, 0.2500000000000000000, -1.000000000000000000 ) ) ;
#96 = PLANE ( 'NONE',  #7 ) ;
#97 = DIRECTION ( 'NONE',  ( 0.0000000000000000000, 0.0000000000000000000, -1.000000000000000000 ) ) ;
#98 = DIRECTION ( 'NONE',  ( 0.0000000000000000000, -1.000000000000000000, -0.0000000000000000000 ) ) ;
#99 = CARTESIAN_POINT ( 'NONE',  ( 0.0000000000000000000, 0.0000000000000000000, 0.0000000000000000000 ) ) ;
#100 = PLANE ( 'NONE',  #10 ) ;
#101 = DIRECTION ( 'NONE',  ( -0.0000000000000000000, -1.000000000000000000, -0.0000000000000000000 ) ) ;
#102 = CARTESIAN_POINT ( 'NONE',  ( 0.0000000000000000000, 0.2500000000000000000, -1.000000000000000000 ) ) ;
#103 = LINE ( 'NONE', #102, #5 ) ;
#104 = CARTESIAN_POINT ( 'NONE',  ( 0.4999999999999998300, 0.0000000000000000000, -1.000000000000000000 ) ) ;
#105 = CARTESIAN_POINT ( 'NONE',  ( 0.0000000000000000000, 0.2500000000000000000, 0.0000000000000000000 ) ) ;
#106 = CARTESIAN_POINT ( 'NONE',  ( 0.5000000000000000000, 0.2500000000000000000, -3.061616997868383000E-017 ) ) ;
#107 = CARTESIAN_POINT ( 'NONE',  ( 0.5000000000000000000, 0.0000000000000000000, -3.061616997868383000E-017 ) ) ;
#108 = CARTESIAN_POINT ( 'NONE',  ( 0.4999999999999998300, 0.2500000000000000000, -1.000000000000000000 ) ) ;
#109 = CARTESIAN_POINT ( 'NONE',  ( 0.0000000000000000000, 0.0000000000000000000, 0.0000000000000000000 ) ) ;
#110 = CARTESIAN_POINT ( 'NONE',  ( 0.0000000000000000000, 0.0000000000000000000, -1.000000000000000000 ) ) ;
#111 = CARTESIAN_POINT ( 'NONE',  ( 0.0000000000000000000, 0.2500000000000000000, -1.000000000000000000 ) ) ;
#112 = ORIENTED_EDGE ( 'NONE', *, *, #195, .T. ) ;
#113 = ORIENTED_EDGE ( 'NONE', *, *, #200, .F. ) ;
#114 = ORIENTED_EDGE ( 'NONE', *, *, #184, .T. ) ;
#115 = ORIENTED_EDGE ( 'NONE', *, *, #180, .F. ) ;
#116 = ORIENTED_EDGE ( 'NONE', *, *, #198, .F. ) ;
#117 = ORIENTED_EDGE ( 'NONE', *, *, #201, .T. ) ;
#118 = ORIENTED_EDGE ( 'NONE', *, *, #183, .T. ) ;
#119 = ORIENTED_EDGE ( 'NONE', *, *, #184, .F. ) ;
#120 = ORIENTED_EDGE ( 'NONE', *, *, #193, .F. ) ;
#121 = ORIENTED_EDGE ( 'NONE', *, *, #199, .T. ) ;
#122 = ORIENTED_EDGE ( 'NONE', *, *, #185, .T. ) ;
#123 = ORIENTED_EDGE ( 'NONE', *, *, #183, .F. ) ;
#124 = ORIENTED_EDGE ( 'NONE', *, *, #186, .F. ) ;
#125 = ORIENTED_EDGE ( 'NONE', *, *, #187, .T. ) ;
#126 = EDGE_LOOP ( 'NONE', ( #142, #141, #127, #140 ) ) ;
#127 = ORIENTED_EDGE ( 'NONE', *, *, #201, .F. ) ;
#128 = EDGE_LOOP ( 'NONE', ( #125, #123, #124, #122 ) ) ;
#129 = EDGE_LOOP ( 'NONE', ( #112, #148, #113, #146 ) ) ;
#130 = EDGE_LOOP ( 'NONE', ( #143, #145, #144, #147 ) ) ;
#131 = EDGE_LOOP ( 'NONE', ( #121, #119, #120, #118 ) ) ;
#132 = EDGE_LOOP ( 'NONE', ( #117, #115, #116, #114 ) ) ;
#133 = VERTEX_POINT ( 'NONE', #110 ) ;
#134 = VERTEX_POINT ( 'NONE', #109 ) ;
#135 = VERTEX_POINT ( 'NONE', #108 ) ;
#136 = VERTEX_POINT ( 'NONE', #107 ) ;
#137 = VERTEX_POINT ( 'NONE', #106 ) ;
#138 = VERTEX_POINT ( 'NONE', #105 ) ;
#139 = VERTEX_POINT ( 'NONE', #104 ) ;
#140 = ORIENTED_EDGE ( 'NONE', *, *, #199, .F. ) ;
#141 = ORIENTED_EDGE ( 'NONE', *, *, #195, .F. ) ;
#142 = ORIENTED_EDGE ( 'NONE', *, *, #187, .F. ) ;
#143 = ORIENTED_EDGE ( 'NONE', *, *, #186, .T. ) ;
#144 = ORIENTED_EDGE ( 'NONE', *, *, #198, .T. ) ;
#145 = ORIENTED_EDGE ( 'NONE', *, *, #193, .T. ) ;
#146 = ORIENTED_EDGE ( 'NONE', *, *, #180, .T. ) ;
#147 = ORIENTED_EDGE ( 'NONE', *, *, #200, .T. ) ;
#148 = ORIENTED_EDGE ( 'NONE', *, *, #185, .F. ) ;
#149 = ADVANCED_BREP_SHAPE_REPRESENTATION ( 'P250DH', ( #203, #153 ), #15 ) ;
#150 = UNCERTAINTY_MEASURE_WITH_UNIT (LENGTH_MEASURE( 1.000000000000000100E-005 ), #19, 'distance_accuracy_value', 'NONE');
#151 = UNCERTAINTY_MEASURE_WITH_UNIT (LENGTH_MEASURE( 1.000000000000000100E-005 ), #35, 'distance_accuracy_value', 'NONE');
#152 = UNCERTAINTY_MEASURE_WITH_UNIT (LENGTH_MEASURE( 1.000000000000000100E-005 ), #30, 'distance_accuracy_value', 'NONE');
#153 = AXIS2_PLACEMENT_3D ( 'NONE', #211, #208, #210 ) ;
#154 = MECHANICAL_DESIGN_GEOMETRIC_PRESENTATION_REPRESENTATION (  '', ( #155 ), #16 ) ;
#155 = STYLED_ITEM ( 'NONE', ( #21 ), #149 ) ;
#156 = LENGTH_MEASURE_WITH_UNIT ( LENGTH_MEASURE( 0.02539999999999999900 ), #20 );
#157 = LENGTH_MEASURE_WITH_UNIT ( LENGTH_MEASURE( 0.02539999999999999900 ), #36 );
#158 = VECTOR ( 'NONE', #63, 39.37007874015748100 ) ;
#159 = VECTOR ( 'NONE', #46, 39.37007874015748100 ) ;
#160 = LENGTH_MEASURE_WITH_UNIT ( LENGTH_MEASURE( 0.02539999999999999900 ), #31 );
#161 = VECTOR ( 'NONE', #83, 39.37007874015748100 ) ;
#162 = AXIS2_PLACEMENT_3D ( 'NONE', #76, #75, #74 ) ;
#163 = FACE_OUTER_BOUND ( 'NONE', #130, .T. ) ;
#164 = FACE_OUTER_BOUND ( 'NONE', #129, .T. ) ;
#165 = AXIS2_PLACEMENT_3D ( 'NONE', #70, #65, #67 ) ;
#166 = VECTOR ( 'NONE', #55, 39.37007874015748100 ) ;
#167 = VECTOR ( 'NONE', #43, 39.37007874015748100 ) ;
#168 = PRESENTATION_LAYER_ASSIGNMENT (  '', '', ( #155 ) ) ;
#169 = STYLED_ITEM ( 'NONE', ( #37 ), #203 ) ;
#170 = MECHANICAL_DESIGN_GEOMETRIC_PRESENTATION_REPRESENTATION (  '', ( #169 ), #14 ) ;
#171 = AXIS2_PLACEMENT_3D ( 'NONE', #59, #60, #61 ) ;
#172 = VECTOR ( 'NONE', #77, 39.37007874015748100 ) ;
#173 = PRESENTATION_LAYER_ASSIGNMENT (  '', '', ( #169 ) ) ;
#174 = PRODUCT_DEFINITION_FORMATION_WITH_SPECIFIED_SOURCE ( 'ANY', '', #2, .NOT_KNOWN. ) ;
#175 = FACE_OUTER_BOUND ( 'NONE', #131, .T. ) ;
#176 = VECTOR ( 'NONE', #80, 39.37007874015748100 ) ;
#177 = AXIS2_PLACEMENT_3D ( 'NONE', #72, #71, #68 ) ;
#178 = VECTOR ( 'NONE', #52, 39.37007874015748100 ) ;
#179 = VECTOR ( 'NONE', #49, 39.37007874015748100 ) ;
#180 = EDGE_CURVE ( 'NONE', #29, #133, #103, .T. ) ;
#181 = ADVANCED_FACE ( 'NONE', ( #11 ), #100, .T. ) ;
#182 = ADVANCED_FACE ( 'NONE', ( #6 ), #96, .F. ) ;
#183 = EDGE_CURVE ( 'NONE', #137, #136, #92, .T. ) ;
#184 = EDGE_CURVE ( 'NONE', #135, #139, #88, .T. ) ;
#185 = EDGE_CURVE ( 'NONE', #138, #134, #85, .T. ) ;
#186 = EDGE_CURVE ( 'NONE', #138, #137, #82, .T. ) ;
#187 = EDGE_CURVE ( 'NONE', #134, #136, #79, .T. ) ;
#188 = ADVANCED_FACE ( 'NONE', ( #13 ), #89, .F. ) ;
#189 = ADVANCED_FACE ( 'NONE', ( #175 ), #73, .F. ) ;
#190 = ADVANCED_FACE ( 'NONE', ( #164 ), #69, .F. ) ;
#191 = COLOUR_RGB ( '',0.5686274509803921400, 0.5686274509803921400, 0.5882352941176470800 ) ;
#192 = COLOUR_RGB ( '',0.5686274509803921400, 0.5686274509803921400, 0.5882352941176470800 ) ;
#193 = EDGE_CURVE ( 'NONE', #137, #135, #66, .T. ) ;
#194 = ADVANCED_FACE ( 'NONE', ( #163 ), #64, .F. ) ;
#195 = EDGE_CURVE ( 'NONE', #133, #134, #57, .T. ) ;
#196 = PRODUCT_DEFINITION ( 'UNKNOWN', '', #174, #202 ) ;
#197 = PRODUCT_RELATED_PRODUCT_CATEGORY ( 'part', '', ( #2 ) ) ;
#198 = EDGE_CURVE ( 'NONE', #135, #29, #54, .T. ) ;
#199 = EDGE_CURVE ( 'NONE', #136, #139, #51, .T. ) ;
#200 = EDGE_CURVE ( 'NONE', #29, #138, #48, .T. ) ;
#201 = EDGE_CURVE ( 'NONE', #139, #133, #45, .T. ) ;
#202 = PRODUCT_DEFINITION_CONTEXT ( 'detailed design', #18, 'design' ) ;
#203 = MANIFOLD_SOLID_BREP ( 'Boss-Extrude1', #8 ) ;
#204 = PRODUCT_DEFINITION_SHAPE ( 'NONE', 'NONE',  #196 ) ;
#205 = PRODUCT_CONTEXT ( 'NONE', #17, 'mechanical' ) ;
#206 = APPLICATION_PROTOCOL_DEFINITION ( 'draft international standard', 'automotive_design', 1998, #17 ) ;
#207 = SHAPE_DEFINITION_REPRESENTATION ( #204, #149 ) ;
#208 = DIRECTION ( 'NONE',  ( 0.0000000000000000000, 0.0000000000000000000, 1.000000000000000000 ) ) ;
#209 = APPLICATION_PROTOCOL_DEFINITION ( 'draft international standard', 'automotive_design', 1998, #18 ) ;
#210 = DIRECTION ( 'NONE',  ( 1.000000000000000000, 0.0000000000000000000, 0.0000000000000000000 ) ) ;
#211 = CARTESIAN_POINT ( 'NONE',  ( 0.0000000000000000000, 0.0000000000000000000, 0.0000000000000000000 ) ) ;
ENDSEC;
END-ISO-10303-21;
