ISO-10303-21;
HEADER;
FILE_DESCRIPTION (( 'STEP AP214' ),
    '1' );
FILE_NAME ('P250HP.step',
    '2012-04-20T21:01:30',
    ( '' ),
    ( '' ),
    'SwSTEP 2.0',
    'SolidWorks 2012',
    '' );
FILE_SCHEMA (( 'AUTOMOTIVE_DESIGN' ));
ENDSEC;

DATA;
#1 = DIMENSIONAL_EXPONENTS ( 1.000000000000000000, 0.0000000000000000000, 0.0000000000000000000, 0.0000000000000000000, 0.0000000000000000000, 0.0000000000000000000, 0.0000000000000000000 ) ;
#2 = DIMENSIONAL_EXPONENTS ( 1.000000000000000000, 0.0000000000000000000, 0.0000000000000000000, 0.0000000000000000000, 0.0000000000000000000, 0.0000000000000000000, 0.0000000000000000000 ) ;
#3 = PRODUCT ( 'P250HP', 'P250HP', '', ( #18 ) ) ;
#4 = DIMENSIONAL_EXPONENTS ( 1.000000000000000000, 0.0000000000000000000, 0.0000000000000000000, 0.0000000000000000000, 0.0000000000000000000, 0.0000000000000000000, 0.0000000000000000000 ) ;
#5 = PRESENTATION_LAYER_ASSIGNMENT (  '', '', ( #8 ) ) ;
#6 = LENGTH_MEASURE_WITH_UNIT ( LENGTH_MEASURE( 0.02539999999999999900 ), #108 );
#7 = CLOSED_SHELL ( 'NONE', ( #204, #203, #202, #201, #200, #199 ) ) ;
#8 = STYLED_ITEM ( 'NONE', ( #109 ), #158 ) ;
#9 = VECTOR ( 'NONE', #102, 39.37007874015748100 ) ;
#10 = MECHANICAL_DESIGN_GEOMETRIC_PRESENTATION_REPRESENTATION (  '', ( #8 ), #209 ) ;
#11 = FACE_OUTER_BOUND ( 'NONE', #138, .T. ) ;
#12 = PRODUCT_DEFINITION ( 'UNKNOWN', '', #178, #160 ) ;
#13 = PRODUCT_RELATED_PRODUCT_CATEGORY ( 'part', '', ( #3 ) ) ;
#14 = COLOUR_RGB ( '',0.5686274509803921400, 0.5686274509803921400, 0.5882352941176470800 ) ;
#15 = APPLICATION_CONTEXT ( 'automotive_design' ) ;
#16 = APPLICATION_CONTEXT ( 'automotive_design' ) ;
#17 = APPLICATION_PROTOCOL_DEFINITION ( 'draft international standard', 'automotive_design', 1998, #16 ) ;
#18 = PRODUCT_CONTEXT ( 'NONE', #15, 'mechanical' ) ;
#19 =( NAMED_UNIT ( * ) SI_UNIT ( $, .STERADIAN. ) SOLID_ANGLE_UNIT ( ) );
#20 = PLANE ( 'NONE',  #182 ) ;
#21 = CARTESIAN_POINT ( 'NONE',  ( 0.0000000000000000000, 0.2500000000000000000, 0.0000000000000000000 ) ) ;
#22 = ORIENTED_EDGE ( 'NONE', *, *, #190, .T. ) ;
#23 = ORIENTED_EDGE ( 'NONE', *, *, #191, .F. ) ;
#24 =( NAMED_UNIT ( * ) PLANE_ANGLE_UNIT ( ) SI_UNIT ( $, .RADIAN. ) );
#25 =( LENGTH_UNIT ( ) NAMED_UNIT ( * ) SI_UNIT ( $, .METRE. ) );
#26 =( CONVERSION_BASED_UNIT ( 'INCH', #175 ) LENGTH_UNIT ( ) NAMED_UNIT ( #2 ) );
#27 = PRESENTATION_STYLE_ASSIGNMENT (( #28 ) ) ;
#28 = SURFACE_STYLE_USAGE ( .BOTH. , #32 ) ;
#29 = ORIENTED_EDGE ( 'NONE', *, *, #197, .T. ) ;
#30 = FILL_AREA_STYLE ('',( #35 ) ) ;
#31 = SURFACE_STYLE_FILL_AREA ( #30 ) ;
#32 = SURFACE_SIDE_STYLE ('',( #31 ) ) ;
#33 = APPLICATION_PROTOCOL_DEFINITION ( 'draft international standard', 'automotive_design', 1998, #15 ) ;
#34 = ORIENTED_EDGE ( 'NONE', *, *, #205, .T. ) ;
#35 = FILL_AREA_STYLE_COLOUR ( '', #196 ) ;
#36 =( NAMED_UNIT ( * ) SI_UNIT ( $, .STERADIAN. ) SOLID_ANGLE_UNIT ( ) );
#37 = DIRECTION ( 'NONE',  ( 1.000000000000000000, 0.0000000000000000000, 0.0000000000000000000 ) ) ;
#38 = DIRECTION ( 'NONE',  ( 0.0000000000000000000, 0.0000000000000000000, 1.000000000000000000 ) ) ;
#39 = CARTESIAN_POINT ( 'NONE',  ( 0.0000000000000000000, 0.0000000000000000000, 0.0000000000000000000 ) ) ;
#40 =( CONVERSION_BASED_UNIT ( 'INCH', #187 ) LENGTH_UNIT ( ) NAMED_UNIT ( #1 ) );
#41 =( LENGTH_UNIT ( ) NAMED_UNIT ( * ) SI_UNIT ( $, .METRE. ) );
#42 = LINE ( 'NONE', #44, #165 ) ;
#43 = DIRECTION ( 'NONE',  ( -1.365923996832131600E-016, -0.0000000000000000000, -1.000000000000000000 ) ) ;
#44 = CARTESIAN_POINT ( 'NONE',  ( 0.9999999999999996700, 0.0000000000000000000, -2.000000000000000000 ) ) ;
#45 = LINE ( 'NONE', #46, #163 ) ;
#46 = CARTESIAN_POINT ( 'NONE',  ( 0.0000000000000000000, 0.2500000000000000000, 0.0000000000000000000 ) ) ;
#47 = DIRECTION ( 'NONE',  ( -0.0000000000000000000, -0.0000000000000000000, 1.000000000000000000 ) ) ;
#48 = DIRECTION ( 'NONE',  ( -0.0000000000000000000, -0.0000000000000000000, 1.000000000000000000 ) ) ;
#49 = CARTESIAN_POINT ( 'NONE',  ( 0.0000000000000000000, 0.0000000000000000000, 0.0000000000000000000 ) ) ;
#50 = LINE ( 'NONE', #49, #162 ) ;
#51 = DIRECTION ( 'NONE',  ( -0.0000000000000000000, -1.000000000000000000, -0.0000000000000000000 ) ) ;
#52 = CARTESIAN_POINT ( 'NONE',  ( 1.000000000000000000, 0.2500000000000000000, -6.123233995736766000E-017 ) ) ;
#53 = LINE ( 'NONE', #52, #161 ) ;
#54 = DIRECTION ( 'NONE',  ( -1.000000000000000000, 0.0000000000000000000, 6.123233995736766000E-017 ) ) ;
#55 = DIRECTION ( 'NONE',  ( -6.123233995736766000E-017, 0.0000000000000000000, -1.000000000000000000 ) ) ;
#56 = CARTESIAN_POINT ( 'NONE',  ( 1.000000000000000000, 0.2500000000000000000, -6.123233995736766000E-017 ) ) ;
#57 = PLANE ( 'NONE',  #169 ) ;
#58 = DIRECTION ( 'NONE',  ( 1.365923996832131600E-016, 0.0000000000000000000, 1.000000000000000000 ) ) ;
#59 = DIRECTION ( 'NONE',  ( -1.000000000000000000, 0.0000000000000000000, 1.365923996832131600E-016 ) ) ;
#60 = CARTESIAN_POINT ( 'NONE',  ( 0.9999999999999996700, 0.2500000000000000000, -2.000000000000000000 ) ) ;
#61 = PLANE ( 'NONE',  #168 ) ;
#62 = DIRECTION ( 'NONE',  ( 1.000000000000000000, 0.0000000000000000000, -0.0000000000000000000 ) ) ;
#63 = DIRECTION ( 'NONE',  ( 0.0000000000000000000, 0.0000000000000000000, 1.000000000000000000 ) ) ;
#64 = CARTESIAN_POINT ( 'NONE',  ( 0.0000000000000000000, 0.2500000000000000000, -2.000000000000000000 ) ) ;
#65 = SHAPE_DEFINITION_REPRESENTATION ( #159, #154 ) ;
#66 = PLANE ( 'NONE',  #184 ) ;
#67 = DIRECTION ( 'NONE',  ( 0.0000000000000000000, 0.0000000000000000000, -1.000000000000000000 ) ) ;
#68 = DIRECTION ( 'NONE',  ( 1.000000000000000000, -0.0000000000000000000, 0.0000000000000000000 ) ) ;
#69 =( NAMED_UNIT ( * ) PLANE_ANGLE_UNIT ( ) SI_UNIT ( $, .RADIAN. ) );
#70 = DIRECTION ( 'NONE',  ( 0.0000000000000000000, 0.0000000000000000000, -1.000000000000000000 ) ) ;
#71 = DIRECTION ( 'NONE',  ( 0.0000000000000000000, -1.000000000000000000, -0.0000000000000000000 ) ) ;
#72 = CARTESIAN_POINT ( 'NONE',  ( 0.0000000000000000000, 0.2500000000000000000, 0.0000000000000000000 ) ) ;
#73 = PLANE ( 'NONE',  #181 ) ;
#74 = DIRECTION ( 'NONE',  ( 0.0000000000000000000, 0.0000000000000000000, -1.000000000000000000 ) ) ;
#75 = DIRECTION ( 'NONE',  ( 0.0000000000000000000, -1.000000000000000000, -0.0000000000000000000 ) ) ;
#76 = CARTESIAN_POINT ( 'NONE',  ( 0.0000000000000000000, 0.0000000000000000000, 0.0000000000000000000 ) ) ;
#77 = DIRECTION ( 'NONE',  ( -1.000000000000000000, -0.0000000000000000000, -0.0000000000000000000 ) ) ;
#78 = CARTESIAN_POINT ( 'NONE',  ( 0.0000000000000000000, 0.2500000000000000000, -2.000000000000000000 ) ) ;
#79 = LINE ( 'NONE', #78, #166 ) ;
#80 = DIRECTION ( 'NONE',  ( -1.000000000000000000, -0.0000000000000000000, -0.0000000000000000000 ) ) ;
#81 = CARTESIAN_POINT ( 'NONE',  ( 0.0000000000000000000, 0.0000000000000000000, -2.000000000000000000 ) ) ;
#82 = LINE ( 'NONE', #81, #188 ) ;
#83 = DIRECTION ( 'NONE',  ( -0.0000000000000000000, -1.000000000000000000, -0.0000000000000000000 ) ) ;
#84 = CARTESIAN_POINT ( 'NONE',  ( 0.0000000000000000000, 0.2500000000000000000, -2.000000000000000000 ) ) ;
#85 = LINE ( 'NONE', #84, #171 ) ;
#86 = DIRECTION ( 'NONE',  ( -1.365923996832131600E-016, -0.0000000000000000000, -1.000000000000000000 ) ) ;
#87 = CARTESIAN_POINT ( 'NONE',  ( 0.9999999999999996700, 0.2500000000000000000, -2.000000000000000000 ) ) ;
#88 = LINE ( 'NONE', #87, #174 ) ;
#89 = DIRECTION ( 'NONE',  ( -0.0000000000000000000, -1.000000000000000000, -0.0000000000000000000 ) ) ;
#90 = CARTESIAN_POINT ( 'NONE',  ( 0.9999999999999996700, 0.2500000000000000000, -2.000000000000000000 ) ) ;
#91 = LINE ( 'NONE', #90, #177 ) ;
#92 = DIRECTION ( 'NONE',  ( -0.0000000000000000000, -1.000000000000000000, -0.0000000000000000000 ) ) ;
#93 = CARTESIAN_POINT ( 'NONE',  ( 0.0000000000000000000, 0.2500000000000000000, 0.0000000000000000000 ) ) ;
#94 = LINE ( 'NONE', #93, #164 ) ;
#95 = DIRECTION ( 'NONE',  ( 1.000000000000000000, -0.0000000000000000000, -6.123233995736766000E-017 ) ) ;
#96 = CARTESIAN_POINT ( 'NONE',  ( 1.000000000000000000, 0.2500000000000000000, -6.123233995736766000E-017 ) ) ;
#97 = LINE ( 'NONE', #96, #183 ) ;
#98 = ORIENTED_EDGE ( 'NONE', *, *, #193, .F. ) ;
#99 = ORIENTED_EDGE ( 'NONE', *, *, #208, .T. ) ;
#100 = ORIENTED_EDGE ( 'NONE', *, *, #192, .T. ) ;
#101 = PLANE ( 'NONE',  #189 ) ;
#102 = DIRECTION ( 'NONE',  ( 1.000000000000000000, -0.0000000000000000000, -6.123233995736766000E-017 ) ) ;
#103 = CARTESIAN_POINT ( 'NONE',  ( 1.000000000000000000, 0.0000000000000000000, -6.123233995736766000E-017 ) ) ;
#104 = LINE ( 'NONE', #103, #9 ) ;
#105 =( NAMED_UNIT ( * ) SI_UNIT ( $, .STERADIAN. ) SOLID_ANGLE_UNIT ( ) );
#106 =( NAMED_UNIT ( * ) PLANE_ANGLE_UNIT ( ) SI_UNIT ( $, .RADIAN. ) );
#107 =( CONVERSION_BASED_UNIT ( 'INCH', #6 ) LENGTH_UNIT ( ) NAMED_UNIT ( #4 ) );
#108 =( LENGTH_UNIT ( ) NAMED_UNIT ( * ) SI_UNIT ( $, .METRE. ) );
#109 = PRESENTATION_STYLE_ASSIGNMENT (( #110 ) ) ;
#110 = SURFACE_STYLE_USAGE ( .BOTH. , #111 ) ;
#111 = SURFACE_SIDE_STYLE ('',( #112 ) ) ;
#112 = SURFACE_STYLE_FILL_AREA ( #113 ) ;
#113 = FILL_AREA_STYLE ('',( #114 ) ) ;
#114 = FILL_AREA_STYLE_COLOUR ( '', #14 ) ;
#115 = CARTESIAN_POINT ( 'NONE',  ( 0.9999999999999996700, 0.0000000000000000000, -2.000000000000000000 ) ) ;
#116 = CARTESIAN_POINT ( 'NONE',  ( 1.000000000000000000, 0.2500000000000000000, -6.123233995736766000E-017 ) ) ;
#117 = CARTESIAN_POINT ( 'NONE',  ( 0.0000000000000000000, 0.2500000000000000000, 0.0000000000000000000 ) ) ;
#118 = CARTESIAN_POINT ( 'NONE',  ( 1.000000000000000000, 0.0000000000000000000, -6.123233995736766000E-017 ) ) ;
#119 = CARTESIAN_POINT ( 'NONE',  ( 0.0000000000000000000, 0.0000000000000000000, 0.0000000000000000000 ) ) ;
#120 = CARTESIAN_POINT ( 'NONE',  ( 0.9999999999999996700, 0.2500000000000000000, -2.000000000000000000 ) ) ;
#121 = CARTESIAN_POINT ( 'NONE',  ( 0.0000000000000000000, 0.2500000000000000000, -2.000000000000000000 ) ) ;
#122 = CARTESIAN_POINT ( 'NONE',  ( 0.0000000000000000000, 0.0000000000000000000, -2.000000000000000000 ) ) ;
#123 = ORIENTED_EDGE ( 'NONE', *, *, #194, .F. ) ;
#124 = ORIENTED_EDGE ( 'NONE', *, *, #197, .F. ) ;
#125 = ORIENTED_EDGE ( 'NONE', *, *, #206, .F. ) ;
#126 = ORIENTED_EDGE ( 'NONE', *, *, #190, .F. ) ;
#127 = ORIENTED_EDGE ( 'NONE', *, *, #208, .F. ) ;
#128 = ORIENTED_EDGE ( 'NONE', *, *, #198, .T. ) ;
#129 = ORIENTED_EDGE ( 'NONE', *, *, #194, .T. ) ;
#130 = ORIENTED_EDGE ( 'NONE', *, *, #191, .T. ) ;
#131 = ORIENTED_EDGE ( 'NONE', *, *, #195, .T. ) ;
#132 = ORIENTED_EDGE ( 'NONE', *, *, #207, .T. ) ;
#133 = ORIENTED_EDGE ( 'NONE', *, *, #192, .F. ) ;
#134 = EDGE_LOOP ( 'NONE', ( #130, #129, #128, #132 ) ) ;
#135 = EDGE_LOOP ( 'NONE', ( #148, #133, #149, #131 ) ) ;
#136 = EDGE_LOOP ( 'NONE', ( #99, #98, #123, #34 ) ) ;
#137 = EDGE_LOOP ( 'NONE', ( #29, #151, #152, #150 ) ) ;
#138 = EDGE_LOOP ( 'NONE', ( #126, #125, #124, #127 ) ) ;
#139 = EDGE_LOOP ( 'NONE', ( #22, #153, #23, #100 ) ) ;
#140 = VERTEX_POINT ( 'NONE', #122 ) ;
#141 = VERTEX_POINT ( 'NONE', #121 ) ;
#142 = VERTEX_POINT ( 'NONE', #120 ) ;
#143 = VERTEX_POINT ( 'NONE', #119 ) ;
#144 = VERTEX_POINT ( 'NONE', #118 ) ;
#145 = VERTEX_POINT ( 'NONE', #117 ) ;
#146 = VERTEX_POINT ( 'NONE', #116 ) ;
#147 = VERTEX_POINT ( 'NONE', #115 ) ;
#148 = ORIENTED_EDGE ( 'NONE', *, *, #206, .T. ) ;
#149 = ORIENTED_EDGE ( 'NONE', *, *, #207, .F. ) ;
#150 = ORIENTED_EDGE ( 'NONE', *, *, #193, .T. ) ;
#151 = ORIENTED_EDGE ( 'NONE', *, *, #195, .F. ) ;
#152 = ORIENTED_EDGE ( 'NONE', *, *, #198, .F. ) ;
#153 = ORIENTED_EDGE ( 'NONE', *, *, #205, .F. ) ;
#154 = ADVANCED_BREP_SHAPE_REPRESENTATION ( 'P250HP', ( #158, #176 ), #210 ) ;
#155 = UNCERTAINTY_MEASURE_WITH_UNIT (LENGTH_MEASURE( 1.000000000000000100E-005 ), #40, 'distance_accuracy_value', 'NONE');
#156 = UNCERTAINTY_MEASURE_WITH_UNIT (LENGTH_MEASURE( 1.000000000000000100E-005 ), #107, 'distance_accuracy_value', 'NONE');
#157 = UNCERTAINTY_MEASURE_WITH_UNIT (LENGTH_MEASURE( 1.000000000000000100E-005 ), #26, 'distance_accuracy_value', 'NONE');
#158 = MANIFOLD_SOLID_BREP ( 'Boss-Extrude1', #7 ) ;
#159 = PRODUCT_DEFINITION_SHAPE ( 'NONE', 'NONE',  #12 ) ;
#160 = PRODUCT_DEFINITION_CONTEXT ( 'detailed design', #16, 'design' ) ;
#161 = VECTOR ( 'NONE', #51, 39.37007874015748100 ) ;
#162 = VECTOR ( 'NONE', #48, 39.37007874015748100 ) ;
#163 = VECTOR ( 'NONE', #47, 39.37007874015748100 ) ;
#164 = VECTOR ( 'NONE', #92, 39.37007874015748100 ) ;
#165 = VECTOR ( 'NONE', #43, 39.37007874015748100 ) ;
#166 = VECTOR ( 'NONE', #77, 39.37007874015748100 ) ;
#167 = STYLED_ITEM ( 'NONE', ( #27 ), #154 ) ;
#168 = AXIS2_PLACEMENT_3D ( 'NONE', #60, #59, #58 ) ;
#169 = AXIS2_PLACEMENT_3D ( 'NONE', #56, #55, #54 ) ;
#170 = PRESENTATION_LAYER_ASSIGNMENT (  '', '', ( #167 ) ) ;
#171 = VECTOR ( 'NONE', #83, 39.37007874015748100 ) ;
#172 = FACE_OUTER_BOUND ( 'NONE', #137, .T. ) ;
#173 = MECHANICAL_DESIGN_GEOMETRIC_PRESENTATION_REPRESENTATION (  '', ( #167 ), #211 ) ;
#174 = VECTOR ( 'NONE', #86, 39.37007874015748100 ) ;
#175 = LENGTH_MEASURE_WITH_UNIT ( LENGTH_MEASURE( 0.02539999999999999900 ), #25 );
#176 = AXIS2_PLACEMENT_3D ( 'NONE', #39, #38, #37 ) ;
#177 = VECTOR ( 'NONE', #89, 39.37007874015748100 ) ;
#178 = PRODUCT_DEFINITION_FORMATION_WITH_SPECIFIED_SOURCE ( 'ANY', '', #3, .NOT_KNOWN. ) ;
#179 = FACE_OUTER_BOUND ( 'NONE', #139, .T. ) ;
#180 = FACE_OUTER_BOUND ( 'NONE', #136, .T. ) ;
#181 = AXIS2_PLACEMENT_3D ( 'NONE', #72, #71, #70 ) ;
#182 = AXIS2_PLACEMENT_3D ( 'NONE', #21, #68, #67 ) ;
#183 = VECTOR ( 'NONE', #95, 39.37007874015748100 ) ;
#184 = AXIS2_PLACEMENT_3D ( 'NONE', #64, #63, #62 ) ;
#185 = FACE_OUTER_BOUND ( 'NONE', #135, .T. ) ;
#186 = FACE_OUTER_BOUND ( 'NONE', #134, .T. ) ;
#187 = LENGTH_MEASURE_WITH_UNIT ( LENGTH_MEASURE( 0.02539999999999999900 ), #41 );
#188 = VECTOR ( 'NONE', #80, 39.37007874015748100 ) ;
#189 = AXIS2_PLACEMENT_3D ( 'NONE', #76, #75, #74 ) ;
#190 = EDGE_CURVE ( 'NONE', #143, #144, #104, .T. ) ;
#191 = EDGE_CURVE ( 'NONE', #145, #146, #97, .T. ) ;
#192 = EDGE_CURVE ( 'NONE', #145, #143, #94, .T. ) ;
#193 = EDGE_CURVE ( 'NONE', #142, #147, #91, .T. ) ;
#194 = EDGE_CURVE ( 'NONE', #146, #142, #88, .T. ) ;
#195 = EDGE_CURVE ( 'NONE', #141, #140, #85, .T. ) ;
#196 = COLOUR_RGB ( '',0.5686274509803921400, 0.5686274509803921400, 0.5882352941176470800 ) ;
#197 = EDGE_CURVE ( 'NONE', #147, #140, #82, .T. ) ;
#198 = EDGE_CURVE ( 'NONE', #142, #141, #79, .T. ) ;
#199 = ADVANCED_FACE ( 'NONE', ( #11 ), #101, .T. ) ;
#200 = ADVANCED_FACE ( 'NONE', ( #186 ), #73, .F. ) ;
#201 = ADVANCED_FACE ( 'NONE', ( #185 ), #20, .F. ) ;
#202 = ADVANCED_FACE ( 'NONE', ( #172 ), #66, .F. ) ;
#203 = ADVANCED_FACE ( 'NONE', ( #180 ), #61, .F. ) ;
#204 = ADVANCED_FACE ( 'NONE', ( #179 ), #57, .F. ) ;
#205 = EDGE_CURVE ( 'NONE', #146, #144, #53, .T. ) ;
#206 = EDGE_CURVE ( 'NONE', #140, #143, #50, .T. ) ;
#207 = EDGE_CURVE ( 'NONE', #141, #145, #45, .T. ) ;
#208 = EDGE_CURVE ( 'NONE', #144, #147, #42, .T. ) ;
#209 =( GEOMETRIC_REPRESENTATION_CONTEXT ( 3 ) GLOBAL_UNCERTAINTY_ASSIGNED_CONTEXT ( ( #156 ) ) GLOBAL_UNIT_ASSIGNED_CONTEXT ( ( #107, #106, #105 ) ) REPRESENTATION_CONTEXT ( 'NONE', 'WORKASPACE' ) );
#210 =( GEOMETRIC_REPRESENTATION_CONTEXT ( 3 ) GLOBAL_UNCERTAINTY_ASSIGNED_CONTEXT ( ( #155 ) ) GLOBAL_UNIT_ASSIGNED_CONTEXT ( ( #40, #69, #36 ) ) REPRESENTATION_CONTEXT ( 'NONE', 'WORKASPACE' ) );
#211 =( GEOMETRIC_REPRESENTATION_CONTEXT ( 3 ) GLOBAL_UNCERTAINTY_ASSIGNED_CONTEXT ( ( #157 ) ) GLOBAL_UNIT_ASSIGNED_CONTEXT ( ( #26, #24, #19 ) ) REPRESENTATION_CONTEXT ( 'NONE', 'WORKASPACE' ) );
ENDSEC;
END-ISO-10303-21;
