ISO-10303-21;
HEADER;
FILE_DESCRIPTION (( 'STEP AP214' ),
    '1' );
FILE_NAME ('P295-1475-625-F.step',
    '2012-04-20T21:01:32',
    ( '' ),
    ( '' ),
    'SwSTEP 2.0',
    'SolidWorks 2012',
    '' );
FILE_SCHEMA (( 'AUTOMOTIVE_DESIGN' ));
ENDSEC;

DATA;
#1 = PRODUCT ( 'P295-1475-625-F', 'P295-1475-625-F', '', ( #183 ) ) ;
#2 = DIMENSIONAL_EXPONENTS ( 1.000000000000000000, 0.0000000000000000000, 0.0000000000000000000, 0.0000000000000000000, 0.0000000000000000000, 0.0000000000000000000, 0.0000000000000000000 ) ;
#3 = DIMENSIONAL_EXPONENTS ( 1.000000000000000000, 0.0000000000000000000, 0.0000000000000000000, 0.0000000000000000000, 0.0000000000000000000, 0.0000000000000000000, 0.0000000000000000000 ) ;
#4 = DIMENSIONAL_EXPONENTS ( 1.000000000000000000, 0.0000000000000000000, 0.0000000000000000000, 0.0000000000000000000, 0.0000000000000000000, 0.0000000000000000000, 0.0000000000000000000 ) ;
#5 = FACE_OUTER_BOUND ( 'NONE', #126, .T. ) ;
#6 = MECHANICAL_DESIGN_GEOMETRIC_PRESENTATION_REPRESENTATION (  '', ( #9 ), #13 ) ;
#7 = PRESENTATION_LAYER_ASSIGNMENT (  '', '', ( #9 ) ) ;
#8 = AXIS2_PLACEMENT_3D ( 'NONE', #83, #82, #81 ) ;
#9 = STYLED_ITEM ( 'NONE', ( #97 ), #179 ) ;
#10 = VECTOR ( 'NONE', #88, 39.37007874015748100 ) ;
#11 = CLOSED_SHELL ( 'NONE', ( #210, #211, #194, #199, #200, #201 ) ) ;
#12 = LENGTH_MEASURE_WITH_UNIT ( LENGTH_MEASURE( 0.02539999999999999900 ), #94 );
#13 =( GEOMETRIC_REPRESENTATION_CONTEXT ( 3 ) GLOBAL_UNCERTAINTY_ASSIGNED_CONTEXT ( ( #147 ) ) GLOBAL_UNIT_ASSIGNED_CONTEXT ( ( #93, #92, #91 ) ) REPRESENTATION_CONTEXT ( 'NONE', 'WORKASPACE' ) );
#14 =( GEOMETRIC_REPRESENTATION_CONTEXT ( 3 ) GLOBAL_UNCERTAINTY_ASSIGNED_CONTEXT ( ( #149 ) ) GLOBAL_UNIT_ASSIGNED_CONTEXT ( ( #29, #27, #26 ) ) REPRESENTATION_CONTEXT ( 'NONE', 'WORKASPACE' ) );
#15 =( GEOMETRIC_REPRESENTATION_CONTEXT ( 3 ) GLOBAL_UNCERTAINTY_ASSIGNED_CONTEXT ( ( #150 ) ) GLOBAL_UNIT_ASSIGNED_CONTEXT ( ( #22, #28, #188 ) ) REPRESENTATION_CONTEXT ( 'NONE', 'WORKASPACE' ) );
#16 = APPLICATION_CONTEXT ( 'automotive_design' ) ;
#17 = APPLICATION_CONTEXT ( 'automotive_design' ) ;
#18 =( LENGTH_UNIT ( ) NAMED_UNIT ( * ) SI_UNIT ( $, .METRE. ) );
#19 = SURFACE_SIDE_STYLE ('',( #21 ) ) ;
#20 = PRESENTATION_STYLE_ASSIGNMENT (( #23 ) ) ;
#21 = SURFACE_STYLE_FILL_AREA ( #25 ) ;
#22 =( CONVERSION_BASED_UNIT ( 'INCH', #157 ) LENGTH_UNIT ( ) NAMED_UNIT ( #4 ) );
#23 = SURFACE_STYLE_USAGE ( .BOTH. , #19 ) ;
#24 = FILL_AREA_STYLE_COLOUR ( '', #191 ) ;
#25 = FILL_AREA_STYLE ('',( #24 ) ) ;
#26 =( NAMED_UNIT ( * ) SI_UNIT ( $, .STERADIAN. ) SOLID_ANGLE_UNIT ( ) );
#27 =( NAMED_UNIT ( * ) PLANE_ANGLE_UNIT ( ) SI_UNIT ( $, .RADIAN. ) );
#28 =( NAMED_UNIT ( * ) PLANE_ANGLE_UNIT ( ) SI_UNIT ( $, .RADIAN. ) );
#29 =( CONVERSION_BASED_UNIT ( 'INCH', #163 ) LENGTH_UNIT ( ) NAMED_UNIT ( #2 ) );
#30 =( LENGTH_UNIT ( ) NAMED_UNIT ( * ) SI_UNIT ( $, .METRE. ) );
#31 = CARTESIAN_POINT ( 'NONE',  ( 0.0000000000000000000, 0.0000000000000000000, 0.0000000000000000000 ) ) ;
#32 = DIRECTION ( 'NONE',  ( 0.0000000000000000000, 0.0000000000000000000, 1.000000000000000000 ) ) ;
#33 = CARTESIAN_POINT ( 'NONE',  ( 1.474999999999999900, 0.2949999999999999800, -0.6250000000000000000 ) ) ;
#34 = DIRECTION ( 'NONE',  ( -1.000000000000000000, 0.0000000000000000000, 0.0000000000000000000 ) ) ;
#35 = PLANE ( 'NONE',  #161 ) ;
#36 = DIRECTION ( 'NONE',  ( -1.000000000000000000, 0.0000000000000000000, 3.943777827762663200E-017 ) ) ;
#37 = DIRECTION ( 'NONE',  ( -3.943777827762663200E-017, 0.0000000000000000000, -1.000000000000000000 ) ) ;
#38 = CARTESIAN_POINT ( 'NONE',  ( 1.474999999999999900, 0.2949999999999999800, -5.817072295949928400E-017 ) ) ;
#39 = DIRECTION ( 'NONE',  ( -0.0000000000000000000, -0.0000000000000000000, 1.000000000000000000 ) ) ;
#40 = CARTESIAN_POINT ( 'NONE',  ( 0.0000000000000000000, 0.0000000000000000000, 0.0000000000000000000 ) ) ;
#41 = LINE ( 'NONE', #40, #151 ) ;
#42 = DIRECTION ( 'NONE',  ( -0.0000000000000000000, -0.0000000000000000000, 1.000000000000000000 ) ) ;
#43 = CARTESIAN_POINT ( 'NONE',  ( 0.0000000000000000000, 0.2949999999999999800, 0.0000000000000000000 ) ) ;
#44 = LINE ( 'NONE', #43, #176 ) ;
#45 = DIRECTION ( 'NONE',  ( -1.000000000000000000, -0.0000000000000000000, -0.0000000000000000000 ) ) ;
#46 = CARTESIAN_POINT ( 'NONE',  ( 0.0000000000000000000, 0.0000000000000000000, -0.6250000000000000000 ) ) ;
#47 = LINE ( 'NONE', #46, #165 ) ;
#48 = DIRECTION ( 'NONE',  ( -0.0000000000000000000, -1.000000000000000000, -0.0000000000000000000 ) ) ;
#49 = CARTESIAN_POINT ( 'NONE',  ( 1.474999999999999900, 0.2949999999999999800, -5.817072295949928400E-017 ) ) ;
#50 = LINE ( 'NONE', #49, #175 ) ;
#51 = DIRECTION ( 'NONE',  ( 1.000000000000000000, -0.0000000000000000000, -3.943777827762663200E-017 ) ) ;
#52 = CARTESIAN_POINT ( 'NONE',  ( 1.474999999999999900, 0.0000000000000000000, -5.817072295949928400E-017 ) ) ;
#53 = LINE ( 'NONE', #52, #173 ) ;
#54 = DIRECTION ( 'NONE',  ( 1.000000000000000000, -0.0000000000000000000, -3.943777827762663200E-017 ) ) ;
#55 = CARTESIAN_POINT ( 'NONE',  ( 1.474999999999999900, 0.2949999999999999800, -5.817072295949928400E-017 ) ) ;
#56 = LINE ( 'NONE', #55, #177 ) ;
#57 = DIRECTION ( 'NONE',  ( -0.0000000000000000000, -0.0000000000000000000, -1.000000000000000000 ) ) ;
#58 = CARTESIAN_POINT ( 'NONE',  ( 1.474999999999999900, 0.0000000000000000000, -0.6250000000000000000 ) ) ;
#59 = LINE ( 'NONE', #58, #178 ) ;
#60 = PLANE ( 'NONE',  #153 ) ;
#61 = DIRECTION ( 'NONE',  ( -0.0000000000000000000, -1.000000000000000000, -0.0000000000000000000 ) ) ;
#62 = CARTESIAN_POINT ( 'NONE',  ( 0.0000000000000000000, 0.2949999999999999800, 0.0000000000000000000 ) ) ;
#63 = LINE ( 'NONE', #62, #171 ) ;
#64 = DIRECTION ( 'NONE',  ( 0.0000000000000000000, 0.0000000000000000000, -1.000000000000000000 ) ) ;
#65 = DIRECTION ( 'NONE',  ( 0.0000000000000000000, -1.000000000000000000, -0.0000000000000000000 ) ) ;
#66 = PLANE ( 'NONE',  #169 ) ;
#67 = DIRECTION ( 'NONE',  ( 0.0000000000000000000, 0.0000000000000000000, -1.000000000000000000 ) ) ;
#68 = DIRECTION ( 'NONE',  ( 0.0000000000000000000, -1.000000000000000000, -0.0000000000000000000 ) ) ;
#69 = CARTESIAN_POINT ( 'NONE',  ( 0.0000000000000000000, 0.2949999999999999800, 0.0000000000000000000 ) ) ;
#70 = PLANE ( 'NONE',  #160 ) ;
#71 = DIRECTION ( 'NONE',  ( 0.0000000000000000000, 0.0000000000000000000, -1.000000000000000000 ) ) ;
#72 = DIRECTION ( 'NONE',  ( 1.000000000000000000, -0.0000000000000000000, 0.0000000000000000000 ) ) ;
#73 = CARTESIAN_POINT ( 'NONE',  ( 0.0000000000000000000, 0.2949999999999999800, 0.0000000000000000000 ) ) ;
#74 = DIRECTION ( 'NONE',  ( -0.0000000000000000000, -1.000000000000000000, -0.0000000000000000000 ) ) ;
#75 = CARTESIAN_POINT ( 'NONE',  ( 1.474999999999999900, 0.2949999999999999800, -0.6250000000000000000 ) ) ;
#76 = LINE ( 'NONE', #75, #168 ) ;
#77 = PLANE ( 'NONE',  #172 ) ;
#78 = DIRECTION ( 'NONE',  ( -1.000000000000000000, -0.0000000000000000000, -0.0000000000000000000 ) ) ;
#79 = CARTESIAN_POINT ( 'NONE',  ( 0.0000000000000000000, 0.2949999999999999800, -0.6250000000000000000 ) ) ;
#80 = LINE ( 'NONE', #79, #170 ) ;
#81 = DIRECTION ( 'NONE',  ( 1.000000000000000000, 0.0000000000000000000, -0.0000000000000000000 ) ) ;
#82 = DIRECTION ( 'NONE',  ( 0.0000000000000000000, 0.0000000000000000000, 1.000000000000000000 ) ) ;
#83 = CARTESIAN_POINT ( 'NONE',  ( 0.0000000000000000000, 0.2949999999999999800, -0.6250000000000000000 ) ) ;
#84 = DIRECTION ( 'NONE',  ( -0.0000000000000000000, -1.000000000000000000, -0.0000000000000000000 ) ) ;
#85 = CARTESIAN_POINT ( 'NONE',  ( 0.0000000000000000000, 0.2949999999999999800, -0.6250000000000000000 ) ) ;
#86 = LINE ( 'NONE', #85, #154 ) ;
#87 = PLANE ( 'NONE',  #8 ) ;
#88 = DIRECTION ( 'NONE',  ( -0.0000000000000000000, -0.0000000000000000000, -1.000000000000000000 ) ) ;
#89 = CARTESIAN_POINT ( 'NONE',  ( 1.474999999999999900, 0.2949999999999999800, -0.6250000000000000000 ) ) ;
#90 = LINE ( 'NONE', #89, #10 ) ;
#91 =( NAMED_UNIT ( * ) SI_UNIT ( $, .STERADIAN. ) SOLID_ANGLE_UNIT ( ) );
#92 =( NAMED_UNIT ( * ) PLANE_ANGLE_UNIT ( ) SI_UNIT ( $, .RADIAN. ) );
#93 =( CONVERSION_BASED_UNIT ( 'INCH', #12 ) LENGTH_UNIT ( ) NAMED_UNIT ( #3 ) );
#94 =( LENGTH_UNIT ( ) NAMED_UNIT ( * ) SI_UNIT ( $, .METRE. ) );
#95 = SURFACE_SIDE_STYLE ('',( #99 ) ) ;
#96 = SURFACE_STYLE_USAGE ( .BOTH. , #95 ) ;
#97 = PRESENTATION_STYLE_ASSIGNMENT (( #96 ) ) ;
#98 = FILL_AREA_STYLE_COLOUR ( '', #190 ) ;
#99 = SURFACE_STYLE_FILL_AREA ( #100 ) ;
#100 = FILL_AREA_STYLE ('',( #98 ) ) ;
#101 = CARTESIAN_POINT ( 'NONE',  ( 1.474999999999999900, 0.0000000000000000000, -5.817072295949928400E-017 ) ) ;
#102 = CARTESIAN_POINT ( 'NONE',  ( 0.0000000000000000000, 0.2949999999999999800, 0.0000000000000000000 ) ) ;
#103 = CARTESIAN_POINT ( 'NONE',  ( 1.474999999999999900, 0.2949999999999999800, -5.817072295949928400E-017 ) ) ;
#104 = CARTESIAN_POINT ( 'NONE',  ( 0.0000000000000000000, 0.0000000000000000000, 0.0000000000000000000 ) ) ;
#105 = CARTESIAN_POINT ( 'NONE',  ( 1.474999999999999900, 0.0000000000000000000, -0.6250000000000000000 ) ) ;
#106 = CARTESIAN_POINT ( 'NONE',  ( 0.0000000000000000000, 0.2949999999999999800, -0.6250000000000000000 ) ) ;
#107 = CARTESIAN_POINT ( 'NONE',  ( 0.0000000000000000000, 0.0000000000000000000, -0.6250000000000000000 ) ) ;
#108 = CARTESIAN_POINT ( 'NONE',  ( 1.474999999999999900, 0.2949999999999999800, -0.6250000000000000000 ) ) ;
#109 = ORIENTED_EDGE ( 'NONE', *, *, #203, .T. ) ;
#110 = ORIENTED_EDGE ( 'NONE', *, *, #202, .T. ) ;
#111 = ORIENTED_EDGE ( 'NONE', *, *, #206, .F. ) ;
#112 = ORIENTED_EDGE ( 'NONE', *, *, #204, .F. ) ;
#113 = ORIENTED_EDGE ( 'NONE', *, *, #205, .T. ) ;
#114 = ORIENTED_EDGE ( 'NONE', *, *, #209, .F. ) ;
#115 = ORIENTED_EDGE ( 'NONE', *, *, #205, .F. ) ;
#116 = ORIENTED_EDGE ( 'NONE', *, *, #203, .F. ) ;
#117 = ORIENTED_EDGE ( 'NONE', *, *, #195, .T. ) ;
#118 = ORIENTED_EDGE ( 'NONE', *, *, #192, .T. ) ;
#119 = ORIENTED_EDGE ( 'NONE', *, *, #204, .T. ) ;
#120 = ORIENTED_EDGE ( 'NONE', *, *, #193, .T. ) ;
#121 = ORIENTED_EDGE ( 'NONE', *, *, #208, .T. ) ;
#122 = ORIENTED_EDGE ( 'NONE', *, *, #202, .F. ) ;
#123 = ORIENTED_EDGE ( 'NONE', *, *, #209, .T. ) ;
#124 = EDGE_LOOP ( 'NONE', ( #119, #118, #117, #121 ) ) ;
#125 = EDGE_LOOP ( 'NONE', ( #115, #114, #138, #116 ) ) ;
#126 = EDGE_LOOP ( 'NONE', ( #143, #141, #142, #140 ) ) ;
#127 = EDGE_LOOP ( 'NONE', ( #113, #111, #112, #110 ) ) ;
#128 = EDGE_LOOP ( 'NONE', ( #123, #122, #139, #120 ) ) ;
#129 = EDGE_LOOP ( 'NONE', ( #109, #145, #146, #144 ) ) ;
#130 = VERTEX_POINT ( 'NONE', #108 ) ;
#131 = VERTEX_POINT ( 'NONE', #107 ) ;
#132 = VERTEX_POINT ( 'NONE', #106 ) ;
#133 = VERTEX_POINT ( 'NONE', #105 ) ;
#134 = VERTEX_POINT ( 'NONE', #104 ) ;
#135 = VERTEX_POINT ( 'NONE', #101 ) ;
#136 = VERTEX_POINT ( 'NONE', #102 ) ;
#137 = VERTEX_POINT ( 'NONE', #103 ) ;
#138 = ORIENTED_EDGE ( 'NONE', *, *, #207, .F. ) ;
#139 = ORIENTED_EDGE ( 'NONE', *, *, #208, .F. ) ;
#140 = ORIENTED_EDGE ( 'NONE', *, *, #198, .T. ) ;
#141 = ORIENTED_EDGE ( 'NONE', *, *, #193, .F. ) ;
#142 = ORIENTED_EDGE ( 'NONE', *, *, #195, .F. ) ;
#143 = ORIENTED_EDGE ( 'NONE', *, *, #207, .T. ) ;
#144 = ORIENTED_EDGE ( 'NONE', *, *, #206, .T. ) ;
#145 = ORIENTED_EDGE ( 'NONE', *, *, #198, .F. ) ;
#146 = ORIENTED_EDGE ( 'NONE', *, *, #192, .F. ) ;
#147 = UNCERTAINTY_MEASURE_WITH_UNIT (LENGTH_MEASURE( 1.000000000000000100E-005 ), #93, 'distance_accuracy_value', 'NONE');
#148 = ADVANCED_BREP_SHAPE_REPRESENTATION ( 'P295-1475-625-F', ( #179, #162 ), #14 ) ;
#149 = UNCERTAINTY_MEASURE_WITH_UNIT (LENGTH_MEASURE( 1.000000000000000100E-005 ), #29, 'distance_accuracy_value', 'NONE');
#150 = UNCERTAINTY_MEASURE_WITH_UNIT (LENGTH_MEASURE( 1.000000000000000100E-005 ), #22, 'distance_accuracy_value', 'NONE');
#151 = VECTOR ( 'NONE', #39, 39.37007874015748100 ) ;
#152 = MECHANICAL_DESIGN_GEOMETRIC_PRESENTATION_REPRESENTATION (  '', ( #156 ), #15 ) ;
#153 = AXIS2_PLACEMENT_3D ( 'NONE', #38, #37, #36 ) ;
#154 = VECTOR ( 'NONE', #84, 39.37007874015748100 ) ;
#155 = PRODUCT_DEFINITION_FORMATION_WITH_SPECIFIED_SOURCE ( 'ANY', '', #1, .NOT_KNOWN. ) ;
#156 = STYLED_ITEM ( 'NONE', ( #20 ), #148 ) ;
#157 = LENGTH_MEASURE_WITH_UNIT ( LENGTH_MEASURE( 0.02539999999999999900 ), #18 );
#158 = PRESENTATION_LAYER_ASSIGNMENT (  '', '', ( #156 ) ) ;
#159 = FACE_OUTER_BOUND ( 'NONE', #124, .T. ) ;
#160 = AXIS2_PLACEMENT_3D ( 'NONE', #69, #68, #67 ) ;
#161 = AXIS2_PLACEMENT_3D ( 'NONE', #33, #34, #32 ) ;
#162 = AXIS2_PLACEMENT_3D ( 'NONE', #186, #185, #189 ) ;
#163 = LENGTH_MEASURE_WITH_UNIT ( LENGTH_MEASURE( 0.02539999999999999900 ), #30 );
#164 = FACE_OUTER_BOUND ( 'NONE', #128, .T. ) ;
#165 = VECTOR ( 'NONE', #45, 39.37007874015748100 ) ;
#166 = FACE_OUTER_BOUND ( 'NONE', #125, .T. ) ;
#167 = FACE_OUTER_BOUND ( 'NONE', #127, .T. ) ;
#168 = VECTOR ( 'NONE', #74, 39.37007874015748100 ) ;
#169 = AXIS2_PLACEMENT_3D ( 'NONE', #31, #65, #64 ) ;
#170 = VECTOR ( 'NONE', #78, 39.37007874015748100 ) ;
#171 = VECTOR ( 'NONE', #61, 39.37007874015748100 ) ;
#172 = AXIS2_PLACEMENT_3D ( 'NONE', #73, #72, #71 ) ;
#173 = VECTOR ( 'NONE', #51, 39.37007874015748100 ) ;
#174 = FACE_OUTER_BOUND ( 'NONE', #129, .T. ) ;
#175 = VECTOR ( 'NONE', #48, 39.37007874015748100 ) ;
#176 = VECTOR ( 'NONE', #42, 39.37007874015748100 ) ;
#177 = VECTOR ( 'NONE', #54, 39.37007874015748100 ) ;
#178 = VECTOR ( 'NONE', #57, 39.37007874015748100 ) ;
#179 = MANIFOLD_SOLID_BREP ( 'Boss-Extrude1', #11 ) ;
#180 = PRODUCT_DEFINITION_CONTEXT ( 'detailed design', #17, 'design' ) ;
#181 = PRODUCT_DEFINITION_SHAPE ( 'NONE', 'NONE',  #197 ) ;
#182 = APPLICATION_PROTOCOL_DEFINITION ( 'draft international standard', 'automotive_design', 1998, #17 ) ;
#183 = PRODUCT_CONTEXT ( 'NONE', #16, 'mechanical' ) ;
#184 = APPLICATION_PROTOCOL_DEFINITION ( 'draft international standard', 'automotive_design', 1998, #16 ) ;
#185 = DIRECTION ( 'NONE',  ( 0.0000000000000000000, 0.0000000000000000000, 1.000000000000000000 ) ) ;
#186 = CARTESIAN_POINT ( 'NONE',  ( 0.0000000000000000000, 0.0000000000000000000, 0.0000000000000000000 ) ) ;
#187 = SHAPE_DEFINITION_REPRESENTATION ( #181, #148 ) ;
#188 =( NAMED_UNIT ( * ) SI_UNIT ( $, .STERADIAN. ) SOLID_ANGLE_UNIT ( ) );
#189 = DIRECTION ( 'NONE',  ( 1.000000000000000000, 0.0000000000000000000, 0.0000000000000000000 ) ) ;
#190 = COLOUR_RGB ( '',0.5686274509803921400, 0.5686274509803921400, 0.5882352941176470800 ) ;
#191 = COLOUR_RGB ( '',0.5686274509803921400, 0.5686274509803921400, 0.5882352941176470800 ) ;
#192 = EDGE_CURVE ( 'NONE', #137, #130, #90, .T. ) ;
#193 = EDGE_CURVE ( 'NONE', #132, #131, #86, .T. ) ;
#194 = ADVANCED_FACE ( 'NONE', ( #5 ), #87, .F. ) ;
#195 = EDGE_CURVE ( 'NONE', #130, #132, #80, .T. ) ;
#196 = PRODUCT_RELATED_PRODUCT_CATEGORY ( 'part', '', ( #1 ) ) ;
#197 = PRODUCT_DEFINITION ( 'UNKNOWN', '', #155, #180 ) ;
#198 = EDGE_CURVE ( 'NONE', #130, #133, #76, .T. ) ;
#199 = ADVANCED_FACE ( 'NONE', ( #164 ), #77, .F. ) ;
#200 = ADVANCED_FACE ( 'NONE', ( #159 ), #70, .F. ) ;
#201 = ADVANCED_FACE ( 'NONE', ( #166 ), #66, .T. ) ;
#202 = EDGE_CURVE ( 'NONE', #136, #134, #63, .T. ) ;
#203 = EDGE_CURVE ( 'NONE', #135, #133, #59, .T. ) ;
#204 = EDGE_CURVE ( 'NONE', #136, #137, #56, .T. ) ;
#205 = EDGE_CURVE ( 'NONE', #134, #135, #53, .T. ) ;
#206 = EDGE_CURVE ( 'NONE', #137, #135, #50, .T. ) ;
#207 = EDGE_CURVE ( 'NONE', #133, #131, #47, .T. ) ;
#208 = EDGE_CURVE ( 'NONE', #132, #136, #44, .T. ) ;
#209 = EDGE_CURVE ( 'NONE', #131, #134, #41, .T. ) ;
#210 = ADVANCED_FACE ( 'NONE', ( #167 ), #60, .F. ) ;
#211 = ADVANCED_FACE ( 'NONE', ( #174 ), #35, .F. ) ;
ENDSEC;
END-ISO-10303-21;
