ISO-10303-21;
HEADER;
FILE_DESCRIPTION (( 'STEP AP214' ),
    '1' );
FILE_NAME ('P375BB.step',
    '2012-04-20T21:01:37',
    ( '' ),
    ( '' ),
    'SwSTEP 2.0',
    'SolidWorks 2012',
    '' );
FILE_SCHEMA (( 'AUTOMOTIVE_DESIGN' ));
ENDSEC;

DATA;
#1 = DIMENSIONAL_EXPONENTS ( 1.000000000000000000, 0.0000000000000000000, 0.0000000000000000000, 0.0000000000000000000, 0.0000000000000000000, 0.0000000000000000000, 0.0000000000000000000 ) ;
#2 = DIMENSIONAL_EXPONENTS ( 1.000000000000000000, 0.0000000000000000000, 0.0000000000000000000, 0.0000000000000000000, 0.0000000000000000000, 0.0000000000000000000, 0.0000000000000000000 ) ;
#3 = PRODUCT ( 'P375BB', 'P375BB', '', ( #20 ) ) ;
#4 = DIMENSIONAL_EXPONENTS ( 1.000000000000000000, 0.0000000000000000000, 0.0000000000000000000, 0.0000000000000000000, 0.0000000000000000000, 0.0000000000000000000, 0.0000000000000000000 ) ;
#5 = MECHANICAL_DESIGN_GEOMETRIC_PRESENTATION_REPRESENTATION (  '', ( #12 ), #209 ) ;
#6 = AXIS2_PLACEMENT_3D ( 'NONE', #75, #74, #71 ) ;
#7 = AXIS2_PLACEMENT_3D ( 'NONE', #83, #82, #81 ) ;
#8 = FACE_OUTER_BOUND ( 'NONE', #114, .T. ) ;
#9 = VECTOR ( 'NONE', #88, 39.37007874015748100 ) ;
#10 = LENGTH_MEASURE_WITH_UNIT ( LENGTH_MEASURE( 0.02539999999999999900 ), #94 );
#11 = PRESENTATION_LAYER_ASSIGNMENT (  '', '', ( #12 ) ) ;
#12 = STYLED_ITEM ( 'NONE', ( #95 ), #180 ) ;
#13 = CLOSED_SHELL ( 'NONE', ( #196, #197, #195, #198, #193, #208 ) ) ;
#14 = PRODUCT_DEFINITION ( 'UNKNOWN', '', #160, #179 ) ;
#15 = COLOUR_RGB ( '',0.5686274509803921400, 0.5686274509803921400, 0.5882352941176470800 ) ;
#16 = PRODUCT_RELATED_PRODUCT_CATEGORY ( 'part', '', ( #3 ) ) ;
#17 = APPLICATION_CONTEXT ( 'automotive_design' ) ;
#18 = APPLICATION_CONTEXT ( 'automotive_design' ) ;
#19 = APPLICATION_PROTOCOL_DEFINITION ( 'draft international standard', 'automotive_design', 1998, #18 ) ;
#20 = PRODUCT_CONTEXT ( 'NONE', #17, 'mechanical' ) ;
#21 =( LENGTH_UNIT ( ) NAMED_UNIT ( * ) SI_UNIT ( $, .METRE. ) );
#22 =( CONVERSION_BASED_UNIT ( 'INCH', #174 ) LENGTH_UNIT ( ) NAMED_UNIT ( #4 ) );
#23 = SURFACE_STYLE_FILL_AREA ( #24 ) ;
#24 = FILL_AREA_STYLE ('',( #80 ) ) ;
#25 =( NAMED_UNIT ( * ) PLANE_ANGLE_UNIT ( ) SI_UNIT ( $, .RADIAN. ) );
#26 = PRESENTATION_STYLE_ASSIGNMENT (( #48 ) ) ;
#27 = DIRECTION ( 'NONE',  ( 0.0000000000000000000, 0.0000000000000000000, -1.000000000000000000 ) ) ;
#28 = DIRECTION ( 'NONE',  ( -0.0000000000000000000, -0.0000000000000000000, 1.000000000000000000 ) ) ;
#29 = CARTESIAN_POINT ( 'NONE',  ( 0.0000000000000000000, 0.0000000000000000000, 0.0000000000000000000 ) ) ;
#30 = CARTESIAN_POINT ( 'NONE',  ( 0.0000000000000000000, 0.0000000000000000000, 0.0000000000000000000 ) ) ;
#31 =( NAMED_UNIT ( * ) SI_UNIT ( $, .STERADIAN. ) SOLID_ANGLE_UNIT ( ) );
#32 = SURFACE_SIDE_STYLE ('',( #23 ) ) ;
#33 = LINE ( 'NONE', #30, #176 ) ;
#34 = DIRECTION ( 'NONE',  ( -1.000000000000000000, -0.0000000000000000000, -0.0000000000000000000 ) ) ;
#35 = CARTESIAN_POINT ( 'NONE',  ( 0.0000000000000000000, 0.3750000000000000600, -0.2499999999999998600 ) ) ;
#36 = LINE ( 'NONE', #35, #175 ) ;
#37 = DIRECTION ( 'NONE',  ( -1.000000000000000000, -0.0000000000000000000, -0.0000000000000000000 ) ) ;
#38 = CARTESIAN_POINT ( 'NONE',  ( 0.0000000000000000000, 0.0000000000000000000, -0.2499999999999998600 ) ) ;
#39 = DIRECTION ( 'NONE',  ( 0.0000000000000000000, -1.000000000000000000, 0.0000000000000000000 ) ) ;
#40 = LINE ( 'NONE', #38, #154 ) ;
#41 = DIRECTION ( 'NONE',  ( -0.0000000000000000000, -1.000000000000000000, -0.0000000000000000000 ) ) ;
#42 = CARTESIAN_POINT ( 'NONE',  ( 0.0000000000000000000, 0.3750000000000000600, -0.2499999999999998600 ) ) ;
#43 = LINE ( 'NONE', #42, #170 ) ;
#44 = DIRECTION ( 'NONE',  ( -0.0000000000000000000, -0.0000000000000000000, -1.000000000000000000 ) ) ;
#45 = CARTESIAN_POINT ( 'NONE',  ( 0.2500000000000000600, 0.3750000000000000600, -0.2499999999999998600 ) ) ;
#46 = LINE ( 'NONE', #45, #173 ) ;
#47 = DIRECTION ( 'NONE',  ( -0.0000000000000000000, -1.000000000000000000, -0.0000000000000000000 ) ) ;
#48 = SURFACE_STYLE_USAGE ( .BOTH. , #32 ) ;
#49 = LINE ( 'NONE', #51, #166 ) ;
#50 = DIRECTION ( 'NONE',  ( -0.0000000000000000000, -1.000000000000000000, -0.0000000000000000000 ) ) ;
#51 = CARTESIAN_POINT ( 'NONE',  ( 0.2500000000000000600, 0.3750000000000000600, -0.2499999999999998600 ) ) ;
#52 = DIRECTION ( 'NONE',  ( 1.000000000000000000, -0.0000000000000000000, 6.000769315822029800E-016 ) ) ;
#53 = LINE ( 'NONE', #54, #167 ) ;
#54 = CARTESIAN_POINT ( 'NONE',  ( 0.0000000000000000000, 0.3750000000000000600, 0.0000000000000000000 ) ) ;
#55 = PLANE ( 'NONE',  #171 ) ;
#56 = CARTESIAN_POINT ( 'NONE',  ( 0.2500000000000000600, 0.3750000000000000600, 1.500192328955507700E-016 ) ) ;
#57 = LINE ( 'NONE', #56, #157 ) ;
#58 = LINE ( 'NONE', #59, #151 ) ;
#59 = CARTESIAN_POINT ( 'NONE',  ( 0.2500000000000000600, 0.0000000000000000000, 1.500192328955507700E-016 ) ) ;
#60 = DIRECTION ( 'NONE',  ( 1.000000000000000000, -0.0000000000000000000, 6.000769315822029800E-016 ) ) ;
#61 = CARTESIAN_POINT ( 'NONE',  ( 0.0000000000000000000, 0.3750000000000000600, 0.0000000000000000000 ) ) ;
#62 = DIRECTION ( 'NONE',  ( 1.000000000000000000, -0.0000000000000000000, 0.0000000000000000000 ) ) ;
#63 = DIRECTION ( 'NONE',  ( 0.0000000000000000000, 0.0000000000000000000, -1.000000000000000000 ) ) ;
#64 = DIRECTION ( 'NONE',  ( -1.000000000000000000, 0.0000000000000000000, 0.0000000000000000000 ) ) ;
#65 = CARTESIAN_POINT ( 'NONE',  ( 0.2500000000000000600, 0.3750000000000000600, -0.2499999999999998600 ) ) ;
#66 = DIRECTION ( 'NONE',  ( 0.0000000000000000000, 0.0000000000000000000, 1.000000000000000000 ) ) ;
#67 = PLANE ( 'NONE',  #172 ) ;
#68 = DIRECTION ( 'NONE',  ( 6.000769315822029800E-016, 0.0000000000000000000, -1.000000000000000000 ) ) ;
#69 = PLANE ( 'NONE',  #169 ) ;
#70 = DIRECTION ( 'NONE',  ( -1.000000000000000000, 0.0000000000000000000, -6.000769315822029800E-016 ) ) ;
#71 = DIRECTION ( 'NONE',  ( 1.000000000000000000, 0.0000000000000000000, -0.0000000000000000000 ) ) ;
#72 = PLANE ( 'NONE',  #155 ) ;
#73 = CARTESIAN_POINT ( 'NONE',  ( 0.2500000000000000600, 0.3750000000000000600, 1.500192328955507700E-016 ) ) ;
#74 = DIRECTION ( 'NONE',  ( 0.0000000000000000000, 0.0000000000000000000, 1.000000000000000000 ) ) ;
#75 = CARTESIAN_POINT ( 'NONE',  ( 0.0000000000000000000, 0.3750000000000000600, -0.2499999999999998600 ) ) ;
#76 = PLANE ( 'NONE',  #6 ) ;
#77 = DIRECTION ( 'NONE',  ( -0.0000000000000000000, -0.0000000000000000000, -1.000000000000000000 ) ) ;
#78 = CARTESIAN_POINT ( 'NONE',  ( 0.2500000000000000600, 0.0000000000000000000, -0.2499999999999998600 ) ) ;
#79 = LINE ( 'NONE', #78, #162 ) ;
#80 = FILL_AREA_STYLE_COLOUR ( '', #192 ) ;
#81 = DIRECTION ( 'NONE',  ( 0.0000000000000000000, 0.0000000000000000000, -1.000000000000000000 ) ) ;
#82 = DIRECTION ( 'NONE',  ( 0.0000000000000000000, -1.000000000000000000, 0.0000000000000000000 ) ) ;
#83 = CARTESIAN_POINT ( 'NONE',  ( 0.0000000000000000000, 0.3750000000000000600, 0.0000000000000000000 ) ) ;
#84 = DIRECTION ( 'NONE',  ( -0.0000000000000000000, -0.0000000000000000000, 1.000000000000000000 ) ) ;
#85 = CARTESIAN_POINT ( 'NONE',  ( 0.0000000000000000000, 0.3750000000000000600, 0.0000000000000000000 ) ) ;
#86 = LINE ( 'NONE', #85, #164 ) ;
#87 = PLANE ( 'NONE',  #7 ) ;
#88 = DIRECTION ( 'NONE',  ( -0.0000000000000000000, -1.000000000000000000, -0.0000000000000000000 ) ) ;
#89 = CARTESIAN_POINT ( 'NONE',  ( 0.2500000000000000600, 0.3750000000000000600, 1.500192328955507700E-016 ) ) ;
#90 = LINE ( 'NONE', #89, #9 ) ;
#91 =( NAMED_UNIT ( * ) SI_UNIT ( $, .STERADIAN. ) SOLID_ANGLE_UNIT ( ) );
#92 =( NAMED_UNIT ( * ) PLANE_ANGLE_UNIT ( ) SI_UNIT ( $, .RADIAN. ) );
#93 =( CONVERSION_BASED_UNIT ( 'INCH', #10 ) LENGTH_UNIT ( ) NAMED_UNIT ( #2 ) );
#94 =( LENGTH_UNIT ( ) NAMED_UNIT ( * ) SI_UNIT ( $, .METRE. ) );
#95 = PRESENTATION_STYLE_ASSIGNMENT (( #96 ) ) ;
#96 = SURFACE_STYLE_USAGE ( .BOTH. , #97 ) ;
#97 = SURFACE_SIDE_STYLE ('',( #98 ) ) ;
#98 = SURFACE_STYLE_FILL_AREA ( #99 ) ;
#99 = FILL_AREA_STYLE ('',( #100 ) ) ;
#100 = FILL_AREA_STYLE_COLOUR ( '', #15 ) ;
#101 = CARTESIAN_POINT ( 'NONE',  ( 0.2500000000000000600, 0.3750000000000000600, 1.500192328955507700E-016 ) ) ;
#102 = CARTESIAN_POINT ( 'NONE',  ( 0.2500000000000000600, 0.0000000000000000000, -0.2499999999999998600 ) ) ;
#103 = CARTESIAN_POINT ( 'NONE',  ( 0.0000000000000000000, 0.3750000000000000600, 0.0000000000000000000 ) ) ;
#104 = CARTESIAN_POINT ( 'NONE',  ( 0.2500000000000000600, 0.0000000000000000000, 1.500192328955507700E-016 ) ) ;
#105 = CARTESIAN_POINT ( 'NONE',  ( 0.2500000000000000600, 0.3750000000000000600, -0.2499999999999998600 ) ) ;
#106 = CARTESIAN_POINT ( 'NONE',  ( 0.0000000000000000000, 0.0000000000000000000, 0.0000000000000000000 ) ) ;
#107 = CARTESIAN_POINT ( 'NONE',  ( 0.0000000000000000000, 0.3750000000000000600, -0.2499999999999998600 ) ) ;
#108 = CARTESIAN_POINT ( 'NONE',  ( 0.0000000000000000000, 0.0000000000000000000, -0.2499999999999998600 ) ) ;
#109 = ORIENTED_EDGE ( 'NONE', *, *, #203, .F. ) ;
#110 = EDGE_LOOP ( 'NONE', ( #142, #141, #109, #140 ) ) ;
#111 = EDGE_LOOP ( 'NONE', ( #139, #137, #138, #136 ) ) ;
#112 = EDGE_LOOP ( 'NONE', ( #146, #144, #145, #143 ) ) ;
#113 = EDGE_LOOP ( 'NONE', ( #134, #125, #135, #123 ) ) ;
#114 = EDGE_LOOP ( 'NONE', ( #122, #121, #120, #124 ) ) ;
#115 = EDGE_LOOP ( 'NONE', ( #118, #117, #116, #119 ) ) ;
#116 = ORIENTED_EDGE ( 'NONE', *, *, #205, .F. ) ;
#117 = ORIENTED_EDGE ( 'NONE', *, *, #207, .F. ) ;
#118 = ORIENTED_EDGE ( 'NONE', *, *, #199, .F. ) ;
#119 = ORIENTED_EDGE ( 'NONE', *, *, #194, .F. ) ;
#120 = ORIENTED_EDGE ( 'NONE', *, *, #206, .T. ) ;
#121 = ORIENTED_EDGE ( 'NONE', *, *, #203, .T. ) ;
#122 = ORIENTED_EDGE ( 'NONE', *, *, #200, .T. ) ;
#123 = ORIENTED_EDGE ( 'NONE', *, *, #204, .T. ) ;
#124 = ORIENTED_EDGE ( 'NONE', *, *, #191, .T. ) ;
#125 = ORIENTED_EDGE ( 'NONE', *, *, #201, .F. ) ;
#126 = VERTEX_POINT ( 'NONE', #108 ) ;
#127 = VERTEX_POINT ( 'NONE', #107 ) ;
#128 = VERTEX_POINT ( 'NONE', #106 ) ;
#129 = VERTEX_POINT ( 'NONE', #105 ) ;
#130 = VERTEX_POINT ( 'NONE', #104 ) ;
#131 = VERTEX_POINT ( 'NONE', #103 ) ;
#132 = VERTEX_POINT ( 'NONE', #102 ) ;
#133 = VERTEX_POINT ( 'NONE', #101 ) ;
#134 = ORIENTED_EDGE ( 'NONE', *, *, #207, .T. ) ;
#135 = ORIENTED_EDGE ( 'NONE', *, *, #191, .F. ) ;
#136 = ORIENTED_EDGE ( 'NONE', *, *, #202, .T. ) ;
#137 = ORIENTED_EDGE ( 'NONE', *, *, #204, .F. ) ;
#138 = ORIENTED_EDGE ( 'NONE', *, *, #206, .F. ) ;
#139 = ORIENTED_EDGE ( 'NONE', *, *, #205, .T. ) ;
#140 = ORIENTED_EDGE ( 'NONE', *, *, #190, .T. ) ;
#141 = ORIENTED_EDGE ( 'NONE', *, *, #202, .F. ) ;
#142 = ORIENTED_EDGE ( 'NONE', *, *, #194, .T. ) ;
#143 = ORIENTED_EDGE ( 'NONE', *, *, #201, .T. ) ;
#144 = ORIENTED_EDGE ( 'NONE', *, *, #190, .F. ) ;
#145 = ORIENTED_EDGE ( 'NONE', *, *, #200, .F. ) ;
#146 = ORIENTED_EDGE ( 'NONE', *, *, #199, .T. ) ;
#147 = UNCERTAINTY_MEASURE_WITH_UNIT (LENGTH_MEASURE( 1.000000000000000100E-005 ), #188, 'distance_accuracy_value', 'NONE');
#148 = UNCERTAINTY_MEASURE_WITH_UNIT (LENGTH_MEASURE( 1.000000000000000100E-005 ), #22, 'distance_accuracy_value', 'NONE');
#149 = UNCERTAINTY_MEASURE_WITH_UNIT (LENGTH_MEASURE( 1.000000000000000100E-005 ), #93, 'distance_accuracy_value', 'NONE');
#150 = ADVANCED_BREP_SHAPE_REPRESENTATION ( 'P375BB', ( #180, #165 ), #210 ) ;
#151 = VECTOR ( 'NONE', #60, 39.37007874015748100 ) ;
#152 = PRESENTATION_LAYER_ASSIGNMENT (  '', '', ( #168 ) ) ;
#153 = MECHANICAL_DESIGN_GEOMETRIC_PRESENTATION_REPRESENTATION (  '', ( #168 ), #211 ) ;
#154 = VECTOR ( 'NONE', #37, 39.37007874015748100 ) ;
#155 = AXIS2_PLACEMENT_3D ( 'NONE', #73, #68, #70 ) ;
#156 = FACE_OUTER_BOUND ( 'NONE', #115, .T. ) ;
#157 = VECTOR ( 'NONE', #52, 39.37007874015748100 ) ;
#158 = FACE_OUTER_BOUND ( 'NONE', #110, .T. ) ;
#159 = FACE_OUTER_BOUND ( 'NONE', #112, .T. ) ;
#160 = PRODUCT_DEFINITION_FORMATION_WITH_SPECIFIED_SOURCE ( 'ANY', '', #3, .NOT_KNOWN. ) ;
#161 = LENGTH_MEASURE_WITH_UNIT ( LENGTH_MEASURE( 0.02539999999999999900 ), #186 );
#162 = VECTOR ( 'NONE', #77, 39.37007874015748100 ) ;
#163 = FACE_OUTER_BOUND ( 'NONE', #113, .T. ) ;
#164 = VECTOR ( 'NONE', #84, 39.37007874015748100 ) ;
#165 = AXIS2_PLACEMENT_3D ( 'NONE', #185, #184, #183 ) ;
#166 = VECTOR ( 'NONE', #47, 39.37007874015748100 ) ;
#167 = VECTOR ( 'NONE', #50, 39.37007874015748100 ) ;
#168 = STYLED_ITEM ( 'NONE', ( #26 ), #150 ) ;
#169 = AXIS2_PLACEMENT_3D ( 'NONE', #65, #64, #66 ) ;
#170 = VECTOR ( 'NONE', #41, 39.37007874015748100 ) ;
#171 = AXIS2_PLACEMENT_3D ( 'NONE', #29, #39, #27 ) ;
#172 = AXIS2_PLACEMENT_3D ( 'NONE', #61, #62, #63 ) ;
#173 = VECTOR ( 'NONE', #44, 39.37007874015748100 ) ;
#174 = LENGTH_MEASURE_WITH_UNIT ( LENGTH_MEASURE( 0.02539999999999999900 ), #21 );
#175 = VECTOR ( 'NONE', #34, 39.37007874015748100 ) ;
#176 = VECTOR ( 'NONE', #28, 39.37007874015748100 ) ;
#177 = FACE_OUTER_BOUND ( 'NONE', #111, .T. ) ;
#178 = PRODUCT_DEFINITION_SHAPE ( 'NONE', 'NONE',  #14 ) ;
#179 = PRODUCT_DEFINITION_CONTEXT ( 'detailed design', #18, 'design' ) ;
#180 = MANIFOLD_SOLID_BREP ( 'Boss-Extrude1', #13 ) ;
#181 =( NAMED_UNIT ( * ) PLANE_ANGLE_UNIT ( ) SI_UNIT ( $, .RADIAN. ) );
#182 = SHAPE_DEFINITION_REPRESENTATION ( #178, #150 ) ;
#183 = DIRECTION ( 'NONE',  ( 1.000000000000000000, 0.0000000000000000000, 0.0000000000000000000 ) ) ;
#184 = DIRECTION ( 'NONE',  ( 0.0000000000000000000, 0.0000000000000000000, 1.000000000000000000 ) ) ;
#185 = CARTESIAN_POINT ( 'NONE',  ( 0.0000000000000000000, 0.0000000000000000000, 0.0000000000000000000 ) ) ;
#186 =( LENGTH_UNIT ( ) NAMED_UNIT ( * ) SI_UNIT ( $, .METRE. ) );
#187 = APPLICATION_PROTOCOL_DEFINITION ( 'draft international standard', 'automotive_design', 1998, #17 ) ;
#188 =( CONVERSION_BASED_UNIT ( 'INCH', #161 ) LENGTH_UNIT ( ) NAMED_UNIT ( #1 ) );
#189 =( NAMED_UNIT ( * ) SI_UNIT ( $, .STERADIAN. ) SOLID_ANGLE_UNIT ( ) );
#190 = EDGE_CURVE ( 'NONE', #133, #130, #90, .T. ) ;
#191 = EDGE_CURVE ( 'NONE', #127, #131, #86, .T. ) ;
#192 = COLOUR_RGB ( '',0.5686274509803921400, 0.5686274509803921400, 0.5882352941176470800 ) ;
#193 = ADVANCED_FACE ( 'NONE', ( #8 ), #87, .F. ) ;
#194 = EDGE_CURVE ( 'NONE', #130, #132, #79, .T. ) ;
#195 = ADVANCED_FACE ( 'NONE', ( #177 ), #76, .F. ) ;
#196 = ADVANCED_FACE ( 'NONE', ( #159 ), #72, .F. ) ;
#197 = ADVANCED_FACE ( 'NONE', ( #158 ), #69, .F. ) ;
#198 = ADVANCED_FACE ( 'NONE', ( #163 ), #67, .F. ) ;
#199 = EDGE_CURVE ( 'NONE', #128, #130, #58, .T. ) ;
#200 = EDGE_CURVE ( 'NONE', #131, #133, #57, .T. ) ;
#201 = EDGE_CURVE ( 'NONE', #131, #128, #53, .T. ) ;
#202 = EDGE_CURVE ( 'NONE', #129, #132, #49, .T. ) ;
#203 = EDGE_CURVE ( 'NONE', #133, #129, #46, .T. ) ;
#204 = EDGE_CURVE ( 'NONE', #127, #126, #43, .T. ) ;
#205 = EDGE_CURVE ( 'NONE', #132, #126, #40, .T. ) ;
#206 = EDGE_CURVE ( 'NONE', #129, #127, #36, .T. ) ;
#207 = EDGE_CURVE ( 'NONE', #126, #128, #33, .T. ) ;
#208 = ADVANCED_FACE ( 'NONE', ( #156 ), #55, .T. ) ;
#209 =( GEOMETRIC_REPRESENTATION_CONTEXT ( 3 ) GLOBAL_UNCERTAINTY_ASSIGNED_CONTEXT ( ( #149 ) ) GLOBAL_UNIT_ASSIGNED_CONTEXT ( ( #93, #92, #91 ) ) REPRESENTATION_CONTEXT ( 'NONE', 'WORKASPACE' ) );
#210 =( GEOMETRIC_REPRESENTATION_CONTEXT ( 3 ) GLOBAL_UNCERTAINTY_ASSIGNED_CONTEXT ( ( #148 ) ) GLOBAL_UNIT_ASSIGNED_CONTEXT ( ( #22, #25, #31 ) ) REPRESENTATION_CONTEXT ( 'NONE', 'WORKASPACE' ) );
#211 =( GEOMETRIC_REPRESENTATION_CONTEXT ( 3 ) GLOBAL_UNCERTAINTY_ASSIGNED_CONTEXT ( ( #147 ) ) GLOBAL_UNIT_ASSIGNED_CONTEXT ( ( #188, #181, #189 ) ) REPRESENTATION_CONTEXT ( 'NONE', 'WORKASPACE' ) );
ENDSEC;
END-ISO-10303-21;
