ISO-10303-21;
HEADER;
FILE_DESCRIPTION (( 'STEP AP214' ),
    '1' );
FILE_NAME ('P500DX.step',
    '2012-04-20T21:02:05',
    ( '' ),
    ( '' ),
    'SwSTEP 2.0',
    'SolidWorks 2012',
    '' );
FILE_SCHEMA (( 'AUTOMOTIVE_DESIGN' ));
ENDSEC;

DATA;
#1 = VERTEX_POINT ( 'NONE', #18 ) ;
#2 = VERTEX_POINT ( 'NONE', #19 ) ;
#3 = VERTEX_POINT ( 'NONE', #20 ) ;
#4 = ORIENTED_EDGE ( 'NONE', *, *, #118, .T. ) ;
#5 = ORIENTED_EDGE ( 'NONE', *, *, #131, .T. ) ;
#6 = ORIENTED_EDGE ( 'NONE', *, *, #129, .F. ) ;
#7 = ORIENTED_EDGE ( 'NONE', *, *, #125, .F. ) ;
#8 = ORIENTED_EDGE ( 'NONE', *, *, #127, .T. ) ;
#9 = ORIENTED_EDGE ( 'NONE', *, *, #130, .F. ) ;
#10 = ORIENTED_EDGE ( 'NONE', *, *, #128, .T. ) ;
#11 = ORIENTED_EDGE ( 'NONE', *, *, #131, .F. ) ;
#12 = ORIENTED_EDGE ( 'NONE', *, *, #132, .T. ) ;
#13 = ORIENTED_EDGE ( 'NONE', *, *, #134, .F. ) ;
#14 = ORIENTED_EDGE ( 'NONE', *, *, #133, .T. ) ;
#15 = ORIENTED_EDGE ( 'NONE', *, *, #128, .F. ) ;
#16 = ORIENTED_EDGE ( 'NONE', *, *, #126, .T. ) ;
#17 = ORIENTED_EDGE ( 'NONE', *, *, #117, .F. ) ;
#18 = CARTESIAN_POINT ( 'NONE',  ( 0.0000000000000000000, 0.0000000000000000000, -3.000000000000000400 ) ) ;
#19 = CARTESIAN_POINT ( 'NONE',  ( 0.0000000000000000000, 0.5000000000000000000, -3.000000000000000400 ) ) ;
#20 = CARTESIAN_POINT ( 'NONE',  ( 0.4999999999999996700, 0.5000000000000000000, -3.000000000000000400 ) ) ;
#21 = LINE ( 'NONE', #22, #148 ) ;
#22 = CARTESIAN_POINT ( 'NONE',  ( 0.0000000000000000000, 0.5000000000000000000, 0.0000000000000000000 ) ) ;
#23 = DIRECTION ( 'NONE',  ( -0.0000000000000000000, -0.0000000000000000000, 1.000000000000000000 ) ) ;
#24 = PLANE ( 'NONE',  #149 ) ;
#25 = LINE ( 'NONE', #26, #150 ) ;
#26 = CARTESIAN_POINT ( 'NONE',  ( 0.0000000000000000000, 0.0000000000000000000, 0.0000000000000000000 ) ) ;
#27 = DIRECTION ( 'NONE',  ( -0.0000000000000000000, -0.0000000000000000000, 1.000000000000000000 ) ) ;
#28 = CARTESIAN_POINT ( 'NONE',  ( 0.0000000000000000000, 0.0000000000000000000, 0.0000000000000000000 ) ) ;
#29 = DIRECTION ( 'NONE',  ( 0.0000000000000000000, -1.000000000000000000, -0.0000000000000000000 ) ) ;
#30 = DIRECTION ( 'NONE',  ( 0.0000000000000000000, 0.0000000000000000000, -1.000000000000000000 ) ) ;
#31 = PLANE ( 'NONE',  #153 ) ;
#32 = CARTESIAN_POINT ( 'NONE',  ( 0.0000000000000000000, 0.5000000000000000000, 0.0000000000000000000 ) ) ;
#33 = DIRECTION ( 'NONE',  ( 0.0000000000000000000, -1.000000000000000000, -0.0000000000000000000 ) ) ;
#34 = DIRECTION ( 'NONE',  ( 0.0000000000000000000, 0.0000000000000000000, -1.000000000000000000 ) ) ;
#35 = PLANE ( 'NONE',  #155 ) ;
#36 = CARTESIAN_POINT ( 'NONE',  ( 0.0000000000000000000, 0.5000000000000000000, 0.0000000000000000000 ) ) ;
#37 = DIRECTION ( 'NONE',  ( 1.000000000000000000, -0.0000000000000000000, 0.0000000000000000000 ) ) ;
#38 = DIRECTION ( 'NONE',  ( 0.0000000000000000000, 0.0000000000000000000, -1.000000000000000000 ) ) ;
#39 = PLANE ( 'NONE',  #156 ) ;
#40 = CARTESIAN_POINT ( 'NONE',  ( 0.0000000000000000000, 0.5000000000000000000, -3.000000000000000400 ) ) ;
#41 = DIRECTION ( 'NONE',  ( 0.0000000000000000000, 0.0000000000000000000, 1.000000000000000000 ) ) ;
#42 = DIRECTION ( 'NONE',  ( 1.000000000000000000, 0.0000000000000000000, -0.0000000000000000000 ) ) ;
#43 = PLANE ( 'NONE',  #159 ) ;
#44 = CARTESIAN_POINT ( 'NONE',  ( 0.4999999999999996700, 0.5000000000000000000, -3.000000000000000400 ) ) ;
#45 = DIRECTION ( 'NONE',  ( -1.000000000000000000, 0.0000000000000000000, 1.138269997360109700E-016 ) ) ;
#46 = DIRECTION ( 'NONE',  ( 1.138269997360109700E-016, 0.0000000000000000000, 1.000000000000000000 ) ) ;
#47 = PLANE ( 'NONE',  #161 ) ;
#48 = CARTESIAN_POINT ( 'NONE',  ( 0.5000000000000000000, 0.5000000000000000000, -3.061616997868383000E-017 ) ) ;
#49 = DIRECTION ( 'NONE',  ( -6.123233995736766000E-017, 0.0000000000000000000, -1.000000000000000000 ) ) ;
#50 = DIRECTION ( 'NONE',  ( -1.000000000000000000, 0.0000000000000000000, 6.123233995736766000E-017 ) ) ;
#51 = LINE ( 'NONE', #52, #162 ) ;
#52 = CARTESIAN_POINT ( 'NONE',  ( 0.0000000000000000000, 0.5000000000000000000, -3.000000000000000400 ) ) ;
#53 = DIRECTION ( 'NONE',  ( -1.000000000000000000, -0.0000000000000000000, -0.0000000000000000000 ) ) ;
#54 = CARTESIAN_POINT ( 'NONE',  ( 0.0000000000000000000, 0.0000000000000000000, 0.0000000000000000000 ) ) ;
#55 = LINE ( 'NONE', #56, #163 ) ;
#56 = CARTESIAN_POINT ( 'NONE',  ( 0.4999999999999996700, 0.0000000000000000000, -3.000000000000000400 ) ) ;
#57 = DIRECTION ( 'NONE',  ( -1.138269997360109700E-016, -0.0000000000000000000, -1.000000000000000000 ) ) ;
#58 = LINE ( 'NONE', #59, #164 ) ;
#59 = CARTESIAN_POINT ( 'NONE',  ( 0.0000000000000000000, 0.0000000000000000000, -3.000000000000000400 ) ) ;
#60 = DIRECTION ( 'NONE',  ( -1.000000000000000000, -0.0000000000000000000, -0.0000000000000000000 ) ) ;
#61 = LINE ( 'NONE', #62, #165 ) ;
#62 = CARTESIAN_POINT ( 'NONE',  ( 0.5000000000000000000, 0.5000000000000000000, -3.061616997868383000E-017 ) ) ;
#63 = DIRECTION ( 'NONE',  ( -0.0000000000000000000, -1.000000000000000000, -0.0000000000000000000 ) ) ;
#64 = LINE ( 'NONE', #65, #166 ) ;
#65 = CARTESIAN_POINT ( 'NONE',  ( 0.0000000000000000000, 0.5000000000000000000, -3.000000000000000400 ) ) ;
#66 = DIRECTION ( 'NONE',  ( -0.0000000000000000000, -1.000000000000000000, -0.0000000000000000000 ) ) ;
#67 = LINE ( 'NONE', #68, #167 ) ;
#68 = CARTESIAN_POINT ( 'NONE',  ( 0.4999999999999996700, 0.5000000000000000000, -3.000000000000000400 ) ) ;
#69 = DIRECTION ( 'NONE',  ( -1.138269997360109700E-016, -0.0000000000000000000, -1.000000000000000000 ) ) ;
#70 = LINE ( 'NONE', #71, #168 ) ;
#71 = CARTESIAN_POINT ( 'NONE',  ( 0.4999999999999996700, 0.5000000000000000000, -3.000000000000000400 ) ) ;
#72 = DIRECTION ( 'NONE',  ( -0.0000000000000000000, -1.000000000000000000, -0.0000000000000000000 ) ) ;
#73 = LINE ( 'NONE', #74, #169 ) ;
#74 = CARTESIAN_POINT ( 'NONE',  ( 0.5000000000000000000, 0.0000000000000000000, -3.061616997868383000E-017 ) ) ;
#75 = DIRECTION ( 'NONE',  ( 1.000000000000000000, -0.0000000000000000000, -6.123233995736766000E-017 ) ) ;
#76 = LINE ( 'NONE', #77, #171 ) ;
#77 = CARTESIAN_POINT ( 'NONE',  ( 0.0000000000000000000, 0.5000000000000000000, 0.0000000000000000000 ) ) ;
#78 = DIRECTION ( 'NONE',  ( -0.0000000000000000000, -1.000000000000000000, -0.0000000000000000000 ) ) ;
#79 = LINE ( 'NONE', #80, #144 ) ;
#80 = CARTESIAN_POINT ( 'NONE',  ( 0.5000000000000000000, 0.5000000000000000000, -3.061616997868383000E-017 ) ) ;
#81 = DIRECTION ( 'NONE',  ( 1.000000000000000000, -0.0000000000000000000, -6.123233995736766000E-017 ) ) ;
#82 = CARTESIAN_POINT ( 'NONE',  ( 0.5000000000000000000, 0.5000000000000000000, -3.061616997868383000E-017 ) ) ;
#83 = CARTESIAN_POINT ( 'NONE',  ( 0.4999999999999996700, 0.0000000000000000000, -3.000000000000000400 ) ) ;
#84 = CARTESIAN_POINT ( 'NONE',  ( 0.0000000000000000000, 0.5000000000000000000, 0.0000000000000000000 ) ) ;
#85 = CARTESIAN_POINT ( 'NONE',  ( 0.5000000000000000000, 0.0000000000000000000, -3.061616997868383000E-017 ) ) ;
#86 = FILL_AREA_STYLE_COLOUR ( '', #137 ) ;
#87 = FILL_AREA_STYLE ('',( #86 ) ) ;
#88 = SURFACE_STYLE_FILL_AREA ( #87 ) ;
#89 = SURFACE_SIDE_STYLE ('',( #88 ) ) ;
#90 = SURFACE_STYLE_USAGE ( .BOTH. , #89 ) ;
#91 = PRESENTATION_STYLE_ASSIGNMENT (( #90 ) ) ;
#92 =( LENGTH_UNIT ( ) NAMED_UNIT ( * ) SI_UNIT ( $, .METRE. ) );
#93 =( CONVERSION_BASED_UNIT ( 'INCH', #197 ) LENGTH_UNIT ( ) NAMED_UNIT ( #207 ) );
#94 =( NAMED_UNIT ( * ) PLANE_ANGLE_UNIT ( ) SI_UNIT ( $, .RADIAN. ) );
#95 =( NAMED_UNIT ( * ) SI_UNIT ( $, .STERADIAN. ) SOLID_ANGLE_UNIT ( ) );
#96 =( LENGTH_UNIT ( ) NAMED_UNIT ( * ) SI_UNIT ( $, .METRE. ) );
#97 =( CONVERSION_BASED_UNIT ( 'INCH', #201 ) LENGTH_UNIT ( ) NAMED_UNIT ( #206 ) );
#98 =( NAMED_UNIT ( * ) PLANE_ANGLE_UNIT ( ) SI_UNIT ( $, .RADIAN. ) );
#99 =( NAMED_UNIT ( * ) SI_UNIT ( $, .STERADIAN. ) SOLID_ANGLE_UNIT ( ) );
#100 = APPLICATION_PROTOCOL_DEFINITION ( 'draft international standard', 'automotive_design', 1998, #140 ) ;
#101 = FILL_AREA_STYLE_COLOUR ( '', #138 ) ;
#102 = FILL_AREA_STYLE ('',( #101 ) ) ;
#103 = SURFACE_STYLE_FILL_AREA ( #102 ) ;
#104 = SURFACE_SIDE_STYLE ('',( #103 ) ) ;
#105 = SURFACE_STYLE_USAGE ( .BOTH. , #104 ) ;
#106 = PRESENTATION_STYLE_ASSIGNMENT (( #105 ) ) ;
#107 =( LENGTH_UNIT ( ) NAMED_UNIT ( * ) SI_UNIT ( $, .METRE. ) );
#108 =( CONVERSION_BASED_UNIT ( 'INCH', #202 ) LENGTH_UNIT ( ) NAMED_UNIT ( #208 ) );
#109 =( NAMED_UNIT ( * ) PLANE_ANGLE_UNIT ( ) SI_UNIT ( $, .RADIAN. ) );
#110 =( NAMED_UNIT ( * ) SI_UNIT ( $, .STERADIAN. ) SOLID_ANGLE_UNIT ( ) );
#111 = CARTESIAN_POINT ( 'NONE',  ( 0.0000000000000000000, 0.0000000000000000000, 0.0000000000000000000 ) ) ;
#112 = DIRECTION ( 'NONE',  ( 0.0000000000000000000, 0.0000000000000000000, 1.000000000000000000 ) ) ;
#113 = DIRECTION ( 'NONE',  ( 1.000000000000000000, 0.0000000000000000000, 0.0000000000000000000 ) ) ;
#114 = SHAPE_DEFINITION_REPRESENTATION ( #210, #174 ) ;
#115 = PRODUCT_CONTEXT ( 'NONE', #140, 'mechanical' ) ;
#116 = APPLICATION_PROTOCOL_DEFINITION ( 'draft international standard', 'automotive_design', 1998, #141 ) ;
#117 = EDGE_CURVE ( 'NONE', #2, #178, #21, .T. ) ;
#118 = EDGE_CURVE ( 'NONE', #1, #195, #25, .T. ) ;
#119 = ADVANCED_FACE ( 'NONE', ( #147 ), #24, .T. ) ;
#120 = ADVANCED_FACE ( 'NONE', ( #145 ), #31, .F. ) ;
#121 = ADVANCED_FACE ( 'NONE', ( #152 ), #35, .F. ) ;
#122 = ADVANCED_FACE ( 'NONE', ( #154 ), #39, .F. ) ;
#123 = ADVANCED_FACE ( 'NONE', ( #157 ), #43, .F. ) ;
#124 = ADVANCED_FACE ( 'NONE', ( #158 ), #47, .F. ) ;
#125 = EDGE_CURVE ( 'NONE', #3, #2, #51, .T. ) ;
#126 = EDGE_CURVE ( 'NONE', #196, #177, #55, .T. ) ;
#127 = EDGE_CURVE ( 'NONE', #177, #1, #58, .T. ) ;
#128 = EDGE_CURVE ( 'NONE', #176, #196, #61, .T. ) ;
#129 = EDGE_CURVE ( 'NONE', #2, #1, #64, .T. ) ;
#130 = EDGE_CURVE ( 'NONE', #176, #3, #67, .T. ) ;
#131 = EDGE_CURVE ( 'NONE', #3, #177, #70, .T. ) ;
#132 = EDGE_CURVE ( 'NONE', #195, #196, #73, .T. ) ;
#133 = EDGE_CURVE ( 'NONE', #178, #195, #76, .T. ) ;
#134 = EDGE_CURVE ( 'NONE', #178, #176, #79, .T. ) ;
#135 = PRODUCT_DEFINITION ( 'UNKNOWN', '', #204, #209 ) ;
#136 = PRODUCT_RELATED_PRODUCT_CATEGORY ( 'part', '', ( #205 ) ) ;
#137 = COLOUR_RGB ( '',0.5686274509803921400, 0.5686274509803921400, 0.5882352941176470800 ) ;
#138 = COLOUR_RGB ( '',0.5686274509803921400, 0.5686274509803921400, 0.5882352941176470800 ) ;
#139 =( GEOMETRIC_REPRESENTATION_CONTEXT ( 3 ) GLOBAL_UNCERTAINTY_ASSIGNED_CONTEXT ( ( #173 ) ) GLOBAL_UNIT_ASSIGNED_CONTEXT ( ( #93, #94, #95 ) ) REPRESENTATION_CONTEXT ( 'NONE', 'WORKASPACE' ) );
#140 = APPLICATION_CONTEXT ( 'automotive_design' ) ;
#141 = APPLICATION_CONTEXT ( 'automotive_design' ) ;
#142 =( GEOMETRIC_REPRESENTATION_CONTEXT ( 3 ) GLOBAL_UNCERTAINTY_ASSIGNED_CONTEXT ( ( #172 ) ) GLOBAL_UNIT_ASSIGNED_CONTEXT ( ( #97, #98, #99 ) ) REPRESENTATION_CONTEXT ( 'NONE', 'WORKASPACE' ) );
#143 =( GEOMETRIC_REPRESENTATION_CONTEXT ( 3 ) GLOBAL_UNCERTAINTY_ASSIGNED_CONTEXT ( ( #175 ) ) GLOBAL_UNIT_ASSIGNED_CONTEXT ( ( #108, #109, #110 ) ) REPRESENTATION_CONTEXT ( 'NONE', 'WORKASPACE' ) );
#144 = VECTOR ( 'NONE', #81, 39.37007874015748100 ) ;
#145 = FACE_OUTER_BOUND ( 'NONE', #192, .T. ) ;
#146 = CLOSED_SHELL ( 'NONE', ( #124, #123, #122, #121, #120, #119 ) ) ;
#147 = FACE_OUTER_BOUND ( 'NONE', #194, .T. ) ;
#148 = VECTOR ( 'NONE', #23, 39.37007874015748100 ) ;
#149 = AXIS2_PLACEMENT_3D ( 'NONE', #28, #29, #30 ) ;
#150 = VECTOR ( 'NONE', #27, 39.37007874015748100 ) ;
#151 = MECHANICAL_DESIGN_GEOMETRIC_PRESENTATION_REPRESENTATION (  '', ( #170 ), #139 ) ;
#152 = FACE_OUTER_BOUND ( 'NONE', #191, .T. ) ;
#153 = AXIS2_PLACEMENT_3D ( 'NONE', #32, #33, #34 ) ;
#154 = FACE_OUTER_BOUND ( 'NONE', #190, .T. ) ;
#155 = AXIS2_PLACEMENT_3D ( 'NONE', #36, #37, #38 ) ;
#156 = AXIS2_PLACEMENT_3D ( 'NONE', #40, #41, #42 ) ;
#157 = FACE_OUTER_BOUND ( 'NONE', #189, .T. ) ;
#158 = FACE_OUTER_BOUND ( 'NONE', #193, .T. ) ;
#159 = AXIS2_PLACEMENT_3D ( 'NONE', #44, #45, #46 ) ;
#160 = PRESENTATION_LAYER_ASSIGNMENT (  '', '', ( #170 ) ) ;
#161 = AXIS2_PLACEMENT_3D ( 'NONE', #48, #49, #50 ) ;
#162 = VECTOR ( 'NONE', #53, 39.37007874015748100 ) ;
#163 = VECTOR ( 'NONE', #57, 39.37007874015748100 ) ;
#164 = VECTOR ( 'NONE', #60, 39.37007874015748100 ) ;
#165 = VECTOR ( 'NONE', #63, 39.37007874015748100 ) ;
#166 = VECTOR ( 'NONE', #66, 39.37007874015748100 ) ;
#167 = VECTOR ( 'NONE', #69, 39.37007874015748100 ) ;
#168 = VECTOR ( 'NONE', #72, 39.37007874015748100 ) ;
#169 = VECTOR ( 'NONE', #75, 39.37007874015748100 ) ;
#170 = STYLED_ITEM ( 'NONE', ( #91 ), #211 ) ;
#171 = VECTOR ( 'NONE', #78, 39.37007874015748100 ) ;
#172 = UNCERTAINTY_MEASURE_WITH_UNIT (LENGTH_MEASURE( 1.000000000000000100E-005 ), #97, 'distance_accuracy_value', 'NONE');
#173 = UNCERTAINTY_MEASURE_WITH_UNIT (LENGTH_MEASURE( 1.000000000000000100E-005 ), #93, 'distance_accuracy_value', 'NONE');
#174 = ADVANCED_BREP_SHAPE_REPRESENTATION ( 'P500DX', ( #211, #203 ), #142 ) ;
#175 = UNCERTAINTY_MEASURE_WITH_UNIT (LENGTH_MEASURE( 1.000000000000000100E-005 ), #108, 'distance_accuracy_value', 'NONE');
#176 = VERTEX_POINT ( 'NONE', #82 ) ;
#177 = VERTEX_POINT ( 'NONE', #83 ) ;
#178 = VERTEX_POINT ( 'NONE', #84 ) ;
#179 = ORIENTED_EDGE ( 'NONE', *, *, #134, .T. ) ;
#180 = ORIENTED_EDGE ( 'NONE', *, *, #129, .T. ) ;
#181 = ORIENTED_EDGE ( 'NONE', *, *, #125, .T. ) ;
#182 = ORIENTED_EDGE ( 'NONE', *, *, #132, .F. ) ;
#183 = ORIENTED_EDGE ( 'NONE', *, *, #117, .T. ) ;
#184 = ORIENTED_EDGE ( 'NONE', *, *, #126, .F. ) ;
#185 = ORIENTED_EDGE ( 'NONE', *, *, #130, .T. ) ;
#186 = ORIENTED_EDGE ( 'NONE', *, *, #133, .F. ) ;
#187 = ORIENTED_EDGE ( 'NONE', *, *, #118, .F. ) ;
#188 = ORIENTED_EDGE ( 'NONE', *, *, #127, .F. ) ;
#189 = EDGE_LOOP ( 'NONE', ( #16, #11, #9, #10 ) ) ;
#190 = EDGE_LOOP ( 'NONE', ( #8, #6, #7, #5 ) ) ;
#191 = EDGE_LOOP ( 'NONE', ( #4, #186, #17, #180 ) ) ;
#192 = EDGE_LOOP ( 'NONE', ( #179, #185, #181, #183 ) ) ;
#193 = EDGE_LOOP ( 'NONE', ( #12, #15, #13, #14 ) ) ;
#194 = EDGE_LOOP ( 'NONE', ( #182, #187, #188, #184 ) ) ;
#195 = VERTEX_POINT ( 'NONE', #54 ) ;
#196 = VERTEX_POINT ( 'NONE', #85 ) ;
#197 = LENGTH_MEASURE_WITH_UNIT ( LENGTH_MEASURE( 0.02539999999999999900 ), #92 );
#198 = STYLED_ITEM ( 'NONE', ( #106 ), #174 ) ;
#199 = PRESENTATION_LAYER_ASSIGNMENT (  '', '', ( #198 ) ) ;
#200 = MECHANICAL_DESIGN_GEOMETRIC_PRESENTATION_REPRESENTATION (  '', ( #198 ), #143 ) ;
#201 = LENGTH_MEASURE_WITH_UNIT ( LENGTH_MEASURE( 0.02539999999999999900 ), #96 );
#202 = LENGTH_MEASURE_WITH_UNIT ( LENGTH_MEASURE( 0.02539999999999999900 ), #107 );
#203 = AXIS2_PLACEMENT_3D ( 'NONE', #111, #112, #113 ) ;
#204 = PRODUCT_DEFINITION_FORMATION_WITH_SPECIFIED_SOURCE ( 'ANY', '', #205, .NOT_KNOWN. ) ;
#205 = PRODUCT ( 'P500DX', 'P500DX', '', ( #115 ) ) ;
#206 = DIMENSIONAL_EXPONENTS ( 1.000000000000000000, 0.0000000000000000000, 0.0000000000000000000, 0.0000000000000000000, 0.0000000000000000000, 0.0000000000000000000, 0.0000000000000000000 ) ;
#207 = DIMENSIONAL_EXPONENTS ( 1.000000000000000000, 0.0000000000000000000, 0.0000000000000000000, 0.0000000000000000000, 0.0000000000000000000, 0.0000000000000000000, 0.0000000000000000000 ) ;
#208 = DIMENSIONAL_EXPONENTS ( 1.000000000000000000, 0.0000000000000000000, 0.0000000000000000000, 0.0000000000000000000, 0.0000000000000000000, 0.0000000000000000000, 0.0000000000000000000 ) ;
#209 = PRODUCT_DEFINITION_CONTEXT ( 'detailed design', #141, 'design' ) ;
#210 = PRODUCT_DEFINITION_SHAPE ( 'NONE', 'NONE',  #135 ) ;
#211 = MANIFOLD_SOLID_BREP ( 'Boss-Extrude1', #146 ) ;
ENDSEC;
END-ISO-10303-21;
