ISO-10303-21;
HEADER;
FILE_DESCRIPTION (( 'STEP AP214' ),
    '1' );
FILE_NAME ('P500HP.step',
    '2012-04-20T21:02:07',
    ( '' ),
    ( '' ),
    'SwSTEP 2.0',
    'SolidWorks 2012',
    '' );
FILE_SCHEMA (( 'AUTOMOTIVE_DESIGN' ));
ENDSEC;

DATA;
#1 = APPLICATION_CONTEXT ( 'automotive_design' ) ;
#2 = APPLICATION_CONTEXT ( 'automotive_design' ) ;
#3 = DIRECTION ( 'NONE',  ( 1.000000000000000000, 0.0000000000000000000, 0.0000000000000000000 ) ) ;
#4 = DIRECTION ( 'NONE',  ( 0.0000000000000000000, 0.0000000000000000000, 1.000000000000000000 ) ) ;
#5 = CARTESIAN_POINT ( 'NONE',  ( 0.0000000000000000000, 0.0000000000000000000, 0.0000000000000000000 ) ) ;
#6 = ORIENTED_EDGE ( 'NONE', *, *, #133, .F. ) ;
#7 = ORIENTED_EDGE ( 'NONE', *, *, #130, .T. ) ;
#8 =( NAMED_UNIT ( * ) SI_UNIT ( $, .STERADIAN. ) SOLID_ANGLE_UNIT ( ) );
#9 =( NAMED_UNIT ( * ) PLANE_ANGLE_UNIT ( ) SI_UNIT ( $, .RADIAN. ) );
#10 =( CONVERSION_BASED_UNIT ( 'INCH', #207 ) LENGTH_UNIT ( ) NAMED_UNIT ( #171 ) );
#11 =( LENGTH_UNIT ( ) NAMED_UNIT ( * ) SI_UNIT ( $, .METRE. ) );
#12 = PRESENTATION_STYLE_ASSIGNMENT (( #13 ) ) ;
#13 = SURFACE_STYLE_USAGE ( .BOTH. , #14 ) ;
#14 = SURFACE_SIDE_STYLE ('',( #15 ) ) ;
#15 = SURFACE_STYLE_FILL_AREA ( #16 ) ;
#16 = FILL_AREA_STYLE ('',( #17 ) ) ;
#17 = FILL_AREA_STYLE_COLOUR ( '', #121 ) ;
#18 = APPLICATION_PROTOCOL_DEFINITION ( 'draft international standard', 'automotive_design', 1998, #1 ) ;
#19 =( NAMED_UNIT ( * ) SI_UNIT ( $, .STERADIAN. ) SOLID_ANGLE_UNIT ( ) );
#20 =( NAMED_UNIT ( * ) PLANE_ANGLE_UNIT ( ) SI_UNIT ( $, .RADIAN. ) );
#21 =( CONVERSION_BASED_UNIT ( 'INCH', #203 ) LENGTH_UNIT ( ) NAMED_UNIT ( #173 ) );
#22 =( LENGTH_UNIT ( ) NAMED_UNIT ( * ) SI_UNIT ( $, .METRE. ) );
#23 =( NAMED_UNIT ( * ) SI_UNIT ( $, .STERADIAN. ) SOLID_ANGLE_UNIT ( ) );
#24 =( NAMED_UNIT ( * ) PLANE_ANGLE_UNIT ( ) SI_UNIT ( $, .RADIAN. ) );
#25 =( CONVERSION_BASED_UNIT ( 'INCH', #193 ) LENGTH_UNIT ( ) NAMED_UNIT ( #172 ) );
#26 =( LENGTH_UNIT ( ) NAMED_UNIT ( * ) SI_UNIT ( $, .METRE. ) );
#27 = PRESENTATION_STYLE_ASSIGNMENT (( #28 ) ) ;
#28 = SURFACE_STYLE_USAGE ( .BOTH. , #29 ) ;
#29 = SURFACE_SIDE_STYLE ('',( #30 ) ) ;
#30 = SURFACE_STYLE_FILL_AREA ( #31 ) ;
#31 = FILL_AREA_STYLE ('',( #32 ) ) ;
#32 = FILL_AREA_STYLE_COLOUR ( '', #120 ) ;
#33 = CARTESIAN_POINT ( 'NONE',  ( 0.9999999999999996700, 0.0000000000000000000, -2.000000000000000000 ) ) ;
#34 = CARTESIAN_POINT ( 'NONE',  ( 0.0000000000000000000, 0.5000000000000000000, -2.000000000000000000 ) ) ;
#35 = CARTESIAN_POINT ( 'NONE',  ( 0.0000000000000000000, 0.0000000000000000000, -2.000000000000000000 ) ) ;
#36 = CARTESIAN_POINT ( 'NONE',  ( 0.9999999999999996700, 0.5000000000000000000, -2.000000000000000000 ) ) ;
#37 = CARTESIAN_POINT ( 'NONE',  ( 1.000000000000000000, 0.0000000000000000000, -6.123233995736766000E-017 ) ) ;
#38 = CARTESIAN_POINT ( 'NONE',  ( 0.0000000000000000000, 0.5000000000000000000, 0.0000000000000000000 ) ) ;
#39 = CARTESIAN_POINT ( 'NONE',  ( 1.000000000000000000, 0.5000000000000000000, -6.123233995736766000E-017 ) ) ;
#40 = CARTESIAN_POINT ( 'NONE',  ( 0.0000000000000000000, 0.0000000000000000000, 0.0000000000000000000 ) ) ;
#41 = DIRECTION ( 'NONE',  ( 0.0000000000000000000, 0.0000000000000000000, -1.000000000000000000 ) ) ;
#42 = DIRECTION ( 'NONE',  ( 0.0000000000000000000, -1.000000000000000000, -0.0000000000000000000 ) ) ;
#43 = CARTESIAN_POINT ( 'NONE',  ( 0.0000000000000000000, 0.0000000000000000000, 0.0000000000000000000 ) ) ;
#44 = PLANE ( 'NONE',  #196 ) ;
#45 = DIRECTION ( 'NONE',  ( 0.0000000000000000000, 0.0000000000000000000, -1.000000000000000000 ) ) ;
#46 = DIRECTION ( 'NONE',  ( 1.000000000000000000, -0.0000000000000000000, 0.0000000000000000000 ) ) ;
#47 = CARTESIAN_POINT ( 'NONE',  ( 0.0000000000000000000, 0.5000000000000000000, 0.0000000000000000000 ) ) ;
#48 = PLANE ( 'NONE',  #198 ) ;
#49 = DIRECTION ( 'NONE',  ( 1.000000000000000000, 0.0000000000000000000, -0.0000000000000000000 ) ) ;
#50 = DIRECTION ( 'NONE',  ( 0.0000000000000000000, 0.0000000000000000000, 1.000000000000000000 ) ) ;
#51 = CARTESIAN_POINT ( 'NONE',  ( 0.0000000000000000000, 0.5000000000000000000, -2.000000000000000000 ) ) ;
#52 = PLANE ( 'NONE',  #200 ) ;
#53 = DIRECTION ( 'NONE',  ( 1.365923996832131600E-016, 0.0000000000000000000, 1.000000000000000000 ) ) ;
#54 = DIRECTION ( 'NONE',  ( -1.000000000000000000, 0.0000000000000000000, 1.365923996832131600E-016 ) ) ;
#55 = CARTESIAN_POINT ( 'NONE',  ( 0.9999999999999996700, 0.5000000000000000000, -2.000000000000000000 ) ) ;
#56 = PLANE ( 'NONE',  #201 ) ;
#57 = DIRECTION ( 'NONE',  ( -1.000000000000000000, 0.0000000000000000000, 6.123233995736766000E-017 ) ) ;
#58 = DIRECTION ( 'NONE',  ( -6.123233995736766000E-017, 0.0000000000000000000, -1.000000000000000000 ) ) ;
#59 = CARTESIAN_POINT ( 'NONE',  ( 1.000000000000000000, 0.5000000000000000000, -6.123233995736766000E-017 ) ) ;
#60 = DIRECTION ( 'NONE',  ( -0.0000000000000000000, -1.000000000000000000, -0.0000000000000000000 ) ) ;
#61 = CARTESIAN_POINT ( 'NONE',  ( 0.9999999999999996700, 0.5000000000000000000, -2.000000000000000000 ) ) ;
#62 = LINE ( 'NONE', #61, #186 ) ;
#63 = DIRECTION ( 'NONE',  ( 1.000000000000000000, -0.0000000000000000000, -6.123233995736766000E-017 ) ) ;
#64 = LINE ( 'NONE', #65, #192 ) ;
#65 = CARTESIAN_POINT ( 'NONE',  ( 1.000000000000000000, 0.0000000000000000000, -6.123233995736766000E-017 ) ) ;
#66 = DIRECTION ( 'NONE',  ( -0.0000000000000000000, -1.000000000000000000, -0.0000000000000000000 ) ) ;
#67 = CARTESIAN_POINT ( 'NONE',  ( 1.000000000000000000, 0.5000000000000000000, -6.123233995736766000E-017 ) ) ;
#68 = LINE ( 'NONE', #67, #191 ) ;
#69 = DIRECTION ( 'NONE',  ( -1.365923996832131600E-016, -0.0000000000000000000, -1.000000000000000000 ) ) ;
#70 = CARTESIAN_POINT ( 'NONE',  ( 0.9999999999999996700, 0.0000000000000000000, -2.000000000000000000 ) ) ;
#71 = LINE ( 'NONE', #70, #189 ) ;
#72 = DIRECTION ( 'NONE',  ( -1.000000000000000000, -0.0000000000000000000, -0.0000000000000000000 ) ) ;
#73 = ORIENTED_EDGE ( 'NONE', *, *, #129, .F. ) ;
#74 = ORIENTED_EDGE ( 'NONE', *, *, #127, .T. ) ;
#75 = ORIENTED_EDGE ( 'NONE', *, *, #125, .T. ) ;
#76 = CARTESIAN_POINT ( 'NONE',  ( 0.0000000000000000000, 0.5000000000000000000, -2.000000000000000000 ) ) ;
#77 = LINE ( 'NONE', #76, #187 ) ;
#78 = DIRECTION ( 'NONE',  ( 1.000000000000000000, -0.0000000000000000000, -6.123233995736766000E-017 ) ) ;
#79 = LINE ( 'NONE', #80, #185 ) ;
#80 = CARTESIAN_POINT ( 'NONE',  ( 1.000000000000000000, 0.5000000000000000000, -6.123233995736766000E-017 ) ) ;
#81 = DIRECTION ( 'NONE',  ( -0.0000000000000000000, -1.000000000000000000, -0.0000000000000000000 ) ) ;
#82 = CARTESIAN_POINT ( 'NONE',  ( 0.0000000000000000000, 0.5000000000000000000, 0.0000000000000000000 ) ) ;
#83 = LINE ( 'NONE', #82, #184 ) ;
#84 = DIRECTION ( 'NONE',  ( -0.0000000000000000000, -1.000000000000000000, -0.0000000000000000000 ) ) ;
#85 = CARTESIAN_POINT ( 'NONE',  ( 0.0000000000000000000, 0.5000000000000000000, -2.000000000000000000 ) ) ;
#86 = LINE ( 'NONE', #85, #181 ) ;
#87 = DIRECTION ( 'NONE',  ( -1.000000000000000000, -0.0000000000000000000, -0.0000000000000000000 ) ) ;
#88 = ORIENTED_EDGE ( 'NONE', *, *, #131, .T. ) ;
#89 = ORIENTED_EDGE ( 'NONE', *, *, #124, .F. ) ;
#90 = CARTESIAN_POINT ( 'NONE',  ( 0.0000000000000000000, 0.0000000000000000000, -2.000000000000000000 ) ) ;
#91 = LINE ( 'NONE', #90, #182 ) ;
#92 = DIRECTION ( 'NONE',  ( -1.365923996832131600E-016, -0.0000000000000000000, -1.000000000000000000 ) ) ;
#93 = CARTESIAN_POINT ( 'NONE',  ( 0.9999999999999996700, 0.5000000000000000000, -2.000000000000000000 ) ) ;
#94 = LINE ( 'NONE', #93, #146 ) ;
#95 = DIRECTION ( 'NONE',  ( -0.0000000000000000000, -0.0000000000000000000, 1.000000000000000000 ) ) ;
#96 = CARTESIAN_POINT ( 'NONE',  ( 0.0000000000000000000, 0.5000000000000000000, 0.0000000000000000000 ) ) ;
#97 = LINE ( 'NONE', #96, #141 ) ;
#98 = PLANE ( 'NONE',  #202 ) ;
#99 = DIRECTION ( 'NONE',  ( -0.0000000000000000000, -0.0000000000000000000, 1.000000000000000000 ) ) ;
#100 = LINE ( 'NONE', #101, #147 ) ;
#101 = CARTESIAN_POINT ( 'NONE',  ( 0.0000000000000000000, 0.0000000000000000000, 0.0000000000000000000 ) ) ;
#102 = DIRECTION ( 'NONE',  ( 0.0000000000000000000, 0.0000000000000000000, -1.000000000000000000 ) ) ;
#103 = DIRECTION ( 'NONE',  ( 0.0000000000000000000, -1.000000000000000000, -0.0000000000000000000 ) ) ;
#104 = CARTESIAN_POINT ( 'NONE',  ( 0.0000000000000000000, 0.5000000000000000000, 0.0000000000000000000 ) ) ;
#105 = PLANE ( 'NONE',  #144 ) ;
#106 = ORIENTED_EDGE ( 'NONE', *, *, #127, .F. ) ;
#107 = ORIENTED_EDGE ( 'NONE', *, *, #126, .T. ) ;
#108 = ORIENTED_EDGE ( 'NONE', *, *, #123, .T. ) ;
#109 = ORIENTED_EDGE ( 'NONE', *, *, #122, .T. ) ;
#110 = ORIENTED_EDGE ( 'NONE', *, *, #132, .F. ) ;
#111 = ORIENTED_EDGE ( 'NONE', *, *, #124, .T. ) ;
#112 = ORIENTED_EDGE ( 'NONE', *, *, #128, .T. ) ;
#113 = PRODUCT_CONTEXT ( 'NONE', #1, 'mechanical' ) ;
#114 = SHAPE_DEFINITION_REPRESENTATION ( #175, #179 ) ;
#115 = ORIENTED_EDGE ( 'NONE', *, *, #129, .T. ) ;
#116 = ORIENTED_EDGE ( 'NONE', *, *, #130, .F. ) ;
#117 = APPLICATION_PROTOCOL_DEFINITION ( 'draft international standard', 'automotive_design', 1998, #2 ) ;
#118 = ADVANCED_FACE ( 'NONE', ( #142 ), #105, .F. ) ;
#119 = PRODUCT_DEFINITION ( 'UNKNOWN', '', #208, #176 ) ;
#120 = COLOUR_RGB ( '',0.5686274509803921400, 0.5686274509803921400, 0.5882352941176470800 ) ;
#121 = COLOUR_RGB ( '',0.5686274509803921400, 0.5686274509803921400, 0.5882352941176470800 ) ;
#122 = EDGE_CURVE ( 'NONE', #156, #151, #100, .T. ) ;
#123 = EDGE_CURVE ( 'NONE', #157, #153, #97, .T. ) ;
#124 = EDGE_CURVE ( 'NONE', #152, #155, #94, .T. ) ;
#125 = EDGE_CURVE ( 'NONE', #167, #156, #91, .T. ) ;
#126 = EDGE_CURVE ( 'NONE', #157, #156, #86, .T. ) ;
#127 = EDGE_CURVE ( 'NONE', #153, #151, #83, .T. ) ;
#128 = EDGE_CURVE ( 'NONE', #153, #152, #79, .T. ) ;
#129 = EDGE_CURVE ( 'NONE', #155, #157, #77, .T. ) ;
#130 = EDGE_CURVE ( 'NONE', #154, #167, #71, .T. ) ;
#131 = EDGE_CURVE ( 'NONE', #152, #154, #68, .T. ) ;
#132 = EDGE_CURVE ( 'NONE', #151, #154, #64, .T. ) ;
#133 = EDGE_CURVE ( 'NONE', #155, #167, #62, .T. ) ;
#134 = ADVANCED_FACE ( 'NONE', ( #145 ), #98, .F. ) ;
#135 = ADVANCED_FACE ( 'NONE', ( #188 ), #56, .F. ) ;
#136 = ADVANCED_FACE ( 'NONE', ( #199 ), #52, .F. ) ;
#137 = ADVANCED_FACE ( 'NONE', ( #197 ), #48, .F. ) ;
#138 = ADVANCED_FACE ( 'NONE', ( #195 ), #44, .T. ) ;
#139 = PRODUCT_RELATED_PRODUCT_CATEGORY ( 'part', '', ( #170 ) ) ;
#140 =( GEOMETRIC_REPRESENTATION_CONTEXT ( 3 ) GLOBAL_UNCERTAINTY_ASSIGNED_CONTEXT ( ( #180 ) ) GLOBAL_UNIT_ASSIGNED_CONTEXT ( ( #25, #24, #23 ) ) REPRESENTATION_CONTEXT ( 'NONE', 'WORKASPACE' ) );
#141 = VECTOR ( 'NONE', #95, 39.37007874015748100 ) ;
#142 = FACE_OUTER_BOUND ( 'NONE', #164, .T. ) ;
#143 = CLOSED_SHELL ( 'NONE', ( #134, #135, #136, #137, #118, #138 ) ) ;
#144 = AXIS2_PLACEMENT_3D ( 'NONE', #104, #103, #102 ) ;
#145 = FACE_OUTER_BOUND ( 'NONE', #161, .T. ) ;
#146 = VECTOR ( 'NONE', #92, 39.37007874015748100 ) ;
#147 = VECTOR ( 'NONE', #99, 39.37007874015748100 ) ;
#148 = ORIENTED_EDGE ( 'NONE', *, *, #132, .T. ) ;
#149 = ORIENTED_EDGE ( 'NONE', *, *, #123, .F. ) ;
#150 = ORIENTED_EDGE ( 'NONE', *, *, #128, .F. ) ;
#151 = VERTEX_POINT ( 'NONE', #40 ) ;
#152 = VERTEX_POINT ( 'NONE', #39 ) ;
#153 = VERTEX_POINT ( 'NONE', #38 ) ;
#154 = VERTEX_POINT ( 'NONE', #37 ) ;
#155 = VERTEX_POINT ( 'NONE', #36 ) ;
#156 = VERTEX_POINT ( 'NONE', #35 ) ;
#157 = VERTEX_POINT ( 'NONE', #34 ) ;
#158 = ORIENTED_EDGE ( 'NONE', *, *, #122, .F. ) ;
#159 = ORIENTED_EDGE ( 'NONE', *, *, #125, .F. ) ;
#160 = EDGE_LOOP ( 'NONE', ( #7, #6, #89, #88 ) ) ;
#161 = EDGE_LOOP ( 'NONE', ( #148, #169, #150, #74 ) ) ;
#162 = EDGE_LOOP ( 'NONE', ( #109, #106, #149, #107 ) ) ;
#163 = EDGE_LOOP ( 'NONE', ( #75, #168, #73, #166 ) ) ;
#164 = EDGE_LOOP ( 'NONE', ( #112, #111, #115, #108 ) ) ;
#165 = EDGE_LOOP ( 'NONE', ( #110, #158, #159, #116 ) ) ;
#166 = ORIENTED_EDGE ( 'NONE', *, *, #133, .T. ) ;
#167 = VERTEX_POINT ( 'NONE', #33 ) ;
#168 = ORIENTED_EDGE ( 'NONE', *, *, #126, .F. ) ;
#169 = ORIENTED_EDGE ( 'NONE', *, *, #131, .F. ) ;
#170 = PRODUCT ( 'P500HP', 'P500HP', '', ( #113 ) ) ;
#171 = DIMENSIONAL_EXPONENTS ( 1.000000000000000000, 0.0000000000000000000, 0.0000000000000000000, 0.0000000000000000000, 0.0000000000000000000, 0.0000000000000000000, 0.0000000000000000000 ) ;
#172 = DIMENSIONAL_EXPONENTS ( 1.000000000000000000, 0.0000000000000000000, 0.0000000000000000000, 0.0000000000000000000, 0.0000000000000000000, 0.0000000000000000000, 0.0000000000000000000 ) ;
#173 = DIMENSIONAL_EXPONENTS ( 1.000000000000000000, 0.0000000000000000000, 0.0000000000000000000, 0.0000000000000000000, 0.0000000000000000000, 0.0000000000000000000, 0.0000000000000000000 ) ;
#174 = MANIFOLD_SOLID_BREP ( 'Boss-Extrude1', #143 ) ;
#175 = PRODUCT_DEFINITION_SHAPE ( 'NONE', 'NONE',  #119 ) ;
#176 = PRODUCT_DEFINITION_CONTEXT ( 'detailed design', #2, 'design' ) ;
#177 = UNCERTAINTY_MEASURE_WITH_UNIT (LENGTH_MEASURE( 1.000000000000000100E-005 ), #10, 'distance_accuracy_value', 'NONE');
#178 = UNCERTAINTY_MEASURE_WITH_UNIT (LENGTH_MEASURE( 1.000000000000000100E-005 ), #21, 'distance_accuracy_value', 'NONE');
#179 = ADVANCED_BREP_SHAPE_REPRESENTATION ( 'P500HP', ( #174, #209 ), #210 ) ;
#180 = UNCERTAINTY_MEASURE_WITH_UNIT (LENGTH_MEASURE( 1.000000000000000100E-005 ), #25, 'distance_accuracy_value', 'NONE');
#181 = VECTOR ( 'NONE', #84, 39.37007874015748100 ) ;
#182 = VECTOR ( 'NONE', #87, 39.37007874015748100 ) ;
#183 = PRESENTATION_LAYER_ASSIGNMENT (  '', '', ( #190 ) ) ;
#184 = VECTOR ( 'NONE', #81, 39.37007874015748100 ) ;
#185 = VECTOR ( 'NONE', #78, 39.37007874015748100 ) ;
#186 = VECTOR ( 'NONE', #60, 39.37007874015748100 ) ;
#187 = VECTOR ( 'NONE', #72, 39.37007874015748100 ) ;
#188 = FACE_OUTER_BOUND ( 'NONE', #160, .T. ) ;
#189 = VECTOR ( 'NONE', #69, 39.37007874015748100 ) ;
#190 = STYLED_ITEM ( 'NONE', ( #27 ), #174 ) ;
#191 = VECTOR ( 'NONE', #66, 39.37007874015748100 ) ;
#192 = VECTOR ( 'NONE', #63, 39.37007874015748100 ) ;
#193 = LENGTH_MEASURE_WITH_UNIT ( LENGTH_MEASURE( 0.02539999999999999900 ), #26 );
#194 = MECHANICAL_DESIGN_GEOMETRIC_PRESENTATION_REPRESENTATION (  '', ( #190 ), #140 ) ;
#195 = FACE_OUTER_BOUND ( 'NONE', #165, .T. ) ;
#196 = AXIS2_PLACEMENT_3D ( 'NONE', #43, #42, #41 ) ;
#197 = FACE_OUTER_BOUND ( 'NONE', #162, .T. ) ;
#198 = AXIS2_PLACEMENT_3D ( 'NONE', #47, #46, #45 ) ;
#199 = FACE_OUTER_BOUND ( 'NONE', #163, .T. ) ;
#200 = AXIS2_PLACEMENT_3D ( 'NONE', #51, #50, #49 ) ;
#201 = AXIS2_PLACEMENT_3D ( 'NONE', #55, #54, #53 ) ;
#202 = AXIS2_PLACEMENT_3D ( 'NONE', #59, #58, #57 ) ;
#203 = LENGTH_MEASURE_WITH_UNIT ( LENGTH_MEASURE( 0.02539999999999999900 ), #22 );
#204 = PRESENTATION_LAYER_ASSIGNMENT (  '', '', ( #205 ) ) ;
#205 = STYLED_ITEM ( 'NONE', ( #12 ), #179 ) ;
#206 = MECHANICAL_DESIGN_GEOMETRIC_PRESENTATION_REPRESENTATION (  '', ( #205 ), #211 ) ;
#207 = LENGTH_MEASURE_WITH_UNIT ( LENGTH_MEASURE( 0.02539999999999999900 ), #11 );
#208 = PRODUCT_DEFINITION_FORMATION_WITH_SPECIFIED_SOURCE ( 'ANY', '', #170, .NOT_KNOWN. ) ;
#209 = AXIS2_PLACEMENT_3D ( 'NONE', #5, #4, #3 ) ;
#210 =( GEOMETRIC_REPRESENTATION_CONTEXT ( 3 ) GLOBAL_UNCERTAINTY_ASSIGNED_CONTEXT ( ( #178 ) ) GLOBAL_UNIT_ASSIGNED_CONTEXT ( ( #21, #20, #19 ) ) REPRESENTATION_CONTEXT ( 'NONE', 'WORKASPACE' ) );
#211 =( GEOMETRIC_REPRESENTATION_CONTEXT ( 3 ) GLOBAL_UNCERTAINTY_ASSIGNED_CONTEXT ( ( #177 ) ) GLOBAL_UNIT_ASSIGNED_CONTEXT ( ( #10, #9, #8 ) ) REPRESENTATION_CONTEXT ( 'NONE', 'WORKASPACE' ) );
ENDSEC;
END-ISO-10303-21;
