ISO-10303-21;
HEADER;
FILE_DESCRIPTION (( 'STEP AP214' ),
    '1' );
FILE_NAME ('P750BB.step',
    '2012-04-20T21:02:22',
    ( '' ),
    ( '' ),
    'SwSTEP 2.0',
    'SolidWorks 2012',
    '' );
FILE_SCHEMA (( 'AUTOMOTIVE_DESIGN' ));
ENDSEC;

DATA;
#1 = VECTOR ( 'NONE', #80, 39.37007874015748100 ) ;
#2 = VECTOR ( 'NONE', #77, 39.37007874015748100 ) ;
#3 = VECTOR ( 'NONE', #86, 39.37007874015748100 ) ;
#4 = LENGTH_MEASURE_WITH_UNIT ( LENGTH_MEASURE( 0.02539999999999999900 ), #40 );
#5 = SHAPE_DEFINITION_REPRESENTATION ( #192, #196 ) ;
#6 = DIRECTION ( 'NONE',  ( 1.000000000000000000, 0.0000000000000000000, 0.0000000000000000000 ) ) ;
#7 = VERTEX_POINT ( 'NONE', #114 ) ;
#8 = DIRECTION ( 'NONE',  ( 0.0000000000000000000, 0.0000000000000000000, 1.000000000000000000 ) ) ;
#9 = CARTESIAN_POINT ( 'NONE',  ( 0.0000000000000000000, 0.0000000000000000000, 0.0000000000000000000 ) ) ;
#10 = VERTEX_POINT ( 'NONE', #113 ) ;
#11 = ORIENTED_EDGE ( 'NONE', *, *, #132, .T. ) ;
#12 = VERTEX_POINT ( 'NONE', #112 ) ;
#13 =( NAMED_UNIT ( * ) PLANE_ANGLE_UNIT ( ) SI_UNIT ( $, .RADIAN. ) );
#14 =( NAMED_UNIT ( * ) SI_UNIT ( $, .STERADIAN. ) SOLID_ANGLE_UNIT ( ) );
#15 = VERTEX_POINT ( 'NONE', #111 ) ;
#16 =( CONVERSION_BASED_UNIT ( 'INCH', #185 ) LENGTH_UNIT ( ) NAMED_UNIT ( #189 ) );
#17 = APPLICATION_PROTOCOL_DEFINITION ( 'draft international standard', 'automotive_design', 1998, #145 ) ;
#18 =( LENGTH_UNIT ( ) NAMED_UNIT ( * ) SI_UNIT ( $, .METRE. ) );
#19 = PRESENTATION_STYLE_ASSIGNMENT (( #20 ) ) ;
#20 = SURFACE_STYLE_USAGE ( .BOTH. , #21 ) ;
#21 = SURFACE_SIDE_STYLE ('',( #23 ) ) ;
#22 = PRODUCT_CONTEXT ( 'NONE', #144, 'mechanical' ) ;
#23 = SURFACE_STYLE_FILL_AREA ( #26 ) ;
#24 = ORIENTED_EDGE ( 'NONE', *, *, #129, .F. ) ;
#25 = VERTEX_POINT ( 'NONE', #110 ) ;
#26 = FILL_AREA_STYLE ('',( #29 ) ) ;
#27 = VERTEX_POINT ( 'NONE', #109 ) ;
#28 = APPLICATION_PROTOCOL_DEFINITION ( 'draft international standard', 'automotive_design', 1998, #144 ) ;
#29 = FILL_AREA_STYLE_COLOUR ( '', #122 ) ;
#30 =( NAMED_UNIT ( * ) SI_UNIT ( $, .STERADIAN. ) SOLID_ANGLE_UNIT ( ) );
#31 =( NAMED_UNIT ( * ) PLANE_ANGLE_UNIT ( ) SI_UNIT ( $, .RADIAN. ) );
#32 =( CONVERSION_BASED_UNIT ( 'INCH', #181 ) LENGTH_UNIT ( ) NAMED_UNIT ( #188 ) );
#33 = ORIENTED_EDGE ( 'NONE', *, *, #125, .T. ) ;
#34 = ORIENTED_EDGE ( 'NONE', *, *, #127, .T. ) ;
#35 = ORIENTED_EDGE ( 'NONE', *, *, #134, .F. ) ;
#36 =( LENGTH_UNIT ( ) NAMED_UNIT ( * ) SI_UNIT ( $, .METRE. ) );
#37 =( NAMED_UNIT ( * ) SI_UNIT ( $, .STERADIAN. ) SOLID_ANGLE_UNIT ( ) );
#38 =( NAMED_UNIT ( * ) PLANE_ANGLE_UNIT ( ) SI_UNIT ( $, .RADIAN. ) );
#39 =( CONVERSION_BASED_UNIT ( 'INCH', #4 ) LENGTH_UNIT ( ) NAMED_UNIT ( #186 ) );
#40 =( LENGTH_UNIT ( ) NAMED_UNIT ( * ) SI_UNIT ( $, .METRE. ) );
#41 = PRESENTATION_STYLE_ASSIGNMENT (( #42 ) ) ;
#42 = SURFACE_STYLE_USAGE ( .BOTH. , #43 ) ;
#43 = SURFACE_SIDE_STYLE ('',( #44 ) ) ;
#44 = SURFACE_STYLE_FILL_AREA ( #45 ) ;
#45 = FILL_AREA_STYLE ('',( #46 ) ) ;
#46 = FILL_AREA_STYLE_COLOUR ( '', #124 ) ;
#47 = CARTESIAN_POINT ( 'NONE',  ( 0.0000000000000000000, 0.0000000000000000000, -0.2499999999999998600 ) ) ;
#48 = CARTESIAN_POINT ( 'NONE',  ( 0.0000000000000000000, 0.7500000000000001100, -0.2499999999999998600 ) ) ;
#49 = DIRECTION ( 'NONE',  ( -1.000000000000000000, 0.0000000000000000000, -6.000769315822029800E-016 ) ) ;
#50 = DIRECTION ( 'NONE',  ( 6.000769315822029800E-016, 0.0000000000000000000, -1.000000000000000000 ) ) ;
#51 = CARTESIAN_POINT ( 'NONE',  ( 0.2500000000000000600, 0.7500000000000001100, 1.500192328955507400E-016 ) ) ;
#52 = PLANE ( 'NONE',  #211 ) ;
#53 = DIRECTION ( 'NONE',  ( -0.0000000000000000000, -1.000000000000000000, -0.0000000000000000000 ) ) ;
#54 = CARTESIAN_POINT ( 'NONE',  ( 0.2500000000000000600, 0.7500000000000001100, -0.2499999999999998600 ) ) ;
#55 = LINE ( 'NONE', #54, #210 ) ;
#56 = DIRECTION ( 'NONE',  ( 0.0000000000000000000, 0.0000000000000000000, -1.000000000000000000 ) ) ;
#57 = DIRECTION ( 'NONE',  ( 1.000000000000000000, -0.0000000000000000000, 0.0000000000000000000 ) ) ;
#58 = CARTESIAN_POINT ( 'NONE',  ( 0.0000000000000000000, 0.7500000000000001100, 0.0000000000000000000 ) ) ;
#59 = PLANE ( 'NONE',  #208 ) ;
#60 = DIRECTION ( 'NONE',  ( -0.0000000000000000000, -0.0000000000000000000, -1.000000000000000000 ) ) ;
#61 = CARTESIAN_POINT ( 'NONE',  ( 0.2500000000000000600, 0.0000000000000000000, -0.2499999999999998600 ) ) ;
#62 = LINE ( 'NONE', #61, #207 ) ;
#63 = DIRECTION ( 'NONE',  ( 1.000000000000000000, 0.0000000000000000000, -0.0000000000000000000 ) ) ;
#64 = DIRECTION ( 'NONE',  ( 0.0000000000000000000, 0.0000000000000000000, 1.000000000000000000 ) ) ;
#65 = CARTESIAN_POINT ( 'NONE',  ( 0.0000000000000000000, 0.7500000000000001100, -0.2499999999999998600 ) ) ;
#66 = PLANE ( 'NONE',  #204 ) ;
#67 = DIRECTION ( 'NONE',  ( 0.0000000000000000000, 0.0000000000000000000, -1.000000000000000000 ) ) ;
#68 = DIRECTION ( 'NONE',  ( 0.0000000000000000000, -1.000000000000000000, 0.0000000000000000000 ) ) ;
#69 = CARTESIAN_POINT ( 'NONE',  ( 0.0000000000000000000, 0.0000000000000000000, 0.0000000000000000000 ) ) ;
#70 = PLANE ( 'NONE',  #201 ) ;
#71 = DIRECTION ( 'NONE',  ( 0.0000000000000000000, 0.0000000000000000000, 1.000000000000000000 ) ) ;
#72 = DIRECTION ( 'NONE',  ( -1.000000000000000000, 0.0000000000000000000, 0.0000000000000000000 ) ) ;
#73 = CARTESIAN_POINT ( 'NONE',  ( 0.2500000000000000600, 0.7500000000000001100, -0.2499999999999998600 ) ) ;
#74 = DIRECTION ( 'NONE',  ( -0.0000000000000000000, -1.000000000000000000, -0.0000000000000000000 ) ) ;
#75 = CARTESIAN_POINT ( 'NONE',  ( 0.0000000000000000000, 0.7500000000000001100, 0.0000000000000000000 ) ) ;
#76 = LINE ( 'NONE', #75, #142 ) ;
#77 = DIRECTION ( 'NONE',  ( 1.000000000000000000, -0.0000000000000000000, 6.000769315822028800E-016 ) ) ;
#78 = CARTESIAN_POINT ( 'NONE',  ( 0.2500000000000000600, 0.7500000000000001100, 1.500192328955507400E-016 ) ) ;
#79 = LINE ( 'NONE', #78, #2 ) ;
#80 = DIRECTION ( 'NONE',  ( -0.0000000000000000000, -1.000000000000000000, -0.0000000000000000000 ) ) ;
#81 = CARTESIAN_POINT ( 'NONE',  ( 0.2500000000000000600, 0.7500000000000001100, 1.500192328955507400E-016 ) ) ;
#82 = LINE ( 'NONE', #81, #1 ) ;
#83 = DIRECTION ( 'NONE',  ( -1.000000000000000000, -0.0000000000000000000, -0.0000000000000000000 ) ) ;
#84 = CARTESIAN_POINT ( 'NONE',  ( 0.0000000000000000000, 0.7500000000000001100, -0.2499999999999998600 ) ) ;
#85 = LINE ( 'NONE', #84, #143 ) ;
#86 = DIRECTION ( 'NONE',  ( -1.000000000000000000, -0.0000000000000000000, -0.0000000000000000000 ) ) ;
#87 = CARTESIAN_POINT ( 'NONE',  ( 0.0000000000000000000, 0.0000000000000000000, -0.2499999999999998600 ) ) ;
#88 = LINE ( 'NONE', #87, #3 ) ;
#89 = DIRECTION ( 'NONE',  ( 1.000000000000000000, -0.0000000000000000000, 6.000769315822028800E-016 ) ) ;
#90 = CARTESIAN_POINT ( 'NONE',  ( 0.2500000000000000600, 0.0000000000000000000, 1.500192328955507400E-016 ) ) ;
#91 = LINE ( 'NONE', #90, #158 ) ;
#92 = DIRECTION ( 'NONE',  ( -0.0000000000000000000, -1.000000000000000000, -0.0000000000000000000 ) ) ;
#93 = CARTESIAN_POINT ( 'NONE',  ( 0.0000000000000000000, 0.7500000000000001100, -0.2499999999999998600 ) ) ;
#94 = LINE ( 'NONE', #93, #157 ) ;
#95 = DIRECTION ( 'NONE',  ( -0.0000000000000000000, -0.0000000000000000000, -1.000000000000000000 ) ) ;
#96 = CARTESIAN_POINT ( 'NONE',  ( 0.2500000000000000600, 0.7500000000000001100, -0.2499999999999998600 ) ) ;
#97 = LINE ( 'NONE', #96, #156 ) ;
#98 = DIRECTION ( 'NONE',  ( -0.0000000000000000000, -0.0000000000000000000, 1.000000000000000000 ) ) ;
#99 = CARTESIAN_POINT ( 'NONE',  ( 0.0000000000000000000, 0.0000000000000000000, 0.0000000000000000000 ) ) ;
#100 = LINE ( 'NONE', #99, #155 ) ;
#101 = PLANE ( 'NONE',  #149 ) ;
#102 = DIRECTION ( 'NONE',  ( -0.0000000000000000000, -0.0000000000000000000, 1.000000000000000000 ) ) ;
#103 = CARTESIAN_POINT ( 'NONE',  ( 0.0000000000000000000, 0.7500000000000001100, 0.0000000000000000000 ) ) ;
#104 = LINE ( 'NONE', #103, #154 ) ;
#105 = DIRECTION ( 'NONE',  ( 0.0000000000000000000, 0.0000000000000000000, -1.000000000000000000 ) ) ;
#106 = DIRECTION ( 'NONE',  ( 0.0000000000000000000, -1.000000000000000000, 0.0000000000000000000 ) ) ;
#107 = CARTESIAN_POINT ( 'NONE',  ( 0.0000000000000000000, 0.7500000000000001100, 0.0000000000000000000 ) ) ;
#108 = PLANE ( 'NONE',  #151 ) ;
#109 = CARTESIAN_POINT ( 'NONE',  ( 0.2500000000000000600, 0.0000000000000000000, -0.2499999999999998600 ) ) ;
#110 = CARTESIAN_POINT ( 'NONE',  ( 0.2500000000000000600, 0.7500000000000001100, -0.2499999999999998600 ) ) ;
#111 = CARTESIAN_POINT ( 'NONE',  ( 0.2500000000000000600, 0.7500000000000001100, 1.500192328955507400E-016 ) ) ;
#112 = CARTESIAN_POINT ( 'NONE',  ( 0.0000000000000000000, 0.7500000000000001100, 0.0000000000000000000 ) ) ;
#113 = CARTESIAN_POINT ( 'NONE',  ( 0.2500000000000000600, 0.0000000000000000000, 1.500192328955507400E-016 ) ) ;
#114 = CARTESIAN_POINT ( 'NONE',  ( 0.0000000000000000000, 0.0000000000000000000, 0.0000000000000000000 ) ) ;
#115 = ORIENTED_EDGE ( 'NONE', *, *, #126, .F. ) ;
#116 = ORIENTED_EDGE ( 'NONE', *, *, #131, .T. ) ;
#117 = ORIENTED_EDGE ( 'NONE', *, *, #138, .F. ) ;
#118 = ORIENTED_EDGE ( 'NONE', *, *, #128, .T. ) ;
#119 = ORIENTED_EDGE ( 'NONE', *, *, #133, .T. ) ;
#120 = PRODUCT_RELATED_PRODUCT_CATEGORY ( 'part', '', ( #187 ) ) ;
#121 = ADVANCED_FACE ( 'NONE', ( #152 ), #108, .F. ) ;
#122 = COLOUR_RGB ( '',0.5686274509803921400, 0.5686274509803921400, 0.5882352941176470800 ) ;
#123 = PRODUCT_DEFINITION ( 'UNKNOWN', '', #148, #190 ) ;
#124 = COLOUR_RGB ( '',0.5686274509803921400, 0.5686274509803921400, 0.5882352941176470800 ) ;
#125 = EDGE_CURVE ( 'NONE', #173, #12, #104, .T. ) ;
#126 = EDGE_CURVE ( 'NONE', #177, #7, #100, .T. ) ;
#127 = EDGE_CURVE ( 'NONE', #15, #25, #97, .T. ) ;
#128 = EDGE_CURVE ( 'NONE', #173, #177, #94, .T. ) ;
#129 = EDGE_CURVE ( 'NONE', #7, #10, #91, .T. ) ;
#130 = EDGE_CURVE ( 'NONE', #27, #177, #88, .T. ) ;
#131 = EDGE_CURVE ( 'NONE', #25, #173, #85, .T. ) ;
#132 = EDGE_CURVE ( 'NONE', #15, #10, #82, .T. ) ;
#133 = EDGE_CURVE ( 'NONE', #12, #15, #79, .T. ) ;
#134 = EDGE_CURVE ( 'NONE', #12, #7, #76, .T. ) ;
#135 = ADVANCED_FACE ( 'NONE', ( #153 ), #101, .F. ) ;
#136 = ADVANCED_FACE ( 'NONE', ( #199 ), #70, .T. ) ;
#137 = ADVANCED_FACE ( 'NONE', ( #202 ), #66, .F. ) ;
#138 = EDGE_CURVE ( 'NONE', #10, #27, #62, .T. ) ;
#139 = ADVANCED_FACE ( 'NONE', ( #205 ), #59, .F. ) ;
#140 = EDGE_CURVE ( 'NONE', #25, #27, #55, .T. ) ;
#141 = ADVANCED_FACE ( 'NONE', ( #203 ), #52, .F. ) ;
#142 = VECTOR ( 'NONE', #74, 39.37007874015748100 ) ;
#143 = VECTOR ( 'NONE', #83, 39.37007874015748100 ) ;
#144 = APPLICATION_CONTEXT ( 'automotive_design' ) ;
#145 = APPLICATION_CONTEXT ( 'automotive_design' ) ;
#146 =( GEOMETRIC_REPRESENTATION_CONTEXT ( 3 ) GLOBAL_UNCERTAINTY_ASSIGNED_CONTEXT ( ( #194 ) ) GLOBAL_UNIT_ASSIGNED_CONTEXT ( ( #39, #38, #37 ) ) REPRESENTATION_CONTEXT ( 'NONE', 'WORKASPACE' ) );
#147 = AXIS2_PLACEMENT_3D ( 'NONE', #9, #8, #6 ) ;
#148 = PRODUCT_DEFINITION_FORMATION_WITH_SPECIFIED_SOURCE ( 'ANY', '', #187, .NOT_KNOWN. ) ;
#149 = AXIS2_PLACEMENT_3D ( 'NONE', #73, #72, #71 ) ;
#150 = CLOSED_SHELL ( 'NONE', ( #141, #135, #137, #139, #121, #136 ) ) ;
#151 = AXIS2_PLACEMENT_3D ( 'NONE', #107, #106, #105 ) ;
#152 = FACE_OUTER_BOUND ( 'NONE', #163, .T. ) ;
#153 = FACE_OUTER_BOUND ( 'NONE', #174, .T. ) ;
#154 = VECTOR ( 'NONE', #102, 39.37007874015748100 ) ;
#155 = VECTOR ( 'NONE', #98, 39.37007874015748100 ) ;
#156 = VECTOR ( 'NONE', #95, 39.37007874015748100 ) ;
#157 = VECTOR ( 'NONE', #92, 39.37007874015748100 ) ;
#158 = VECTOR ( 'NONE', #89, 39.37007874015748100 ) ;
#159 = EDGE_LOOP ( 'NONE', ( #24, #115, #170, #117 ) ) ;
#160 = EDGE_LOOP ( 'NONE', ( #178, #175, #161, #171 ) ) ;
#161 = ORIENTED_EDGE ( 'NONE', *, *, #133, .F. ) ;
#162 = ORIENTED_EDGE ( 'NONE', *, *, #131, .F. ) ;
#163 = EDGE_LOOP ( 'NONE', ( #119, #34, #116, #33 ) ) ;
#164 = ORIENTED_EDGE ( 'NONE', *, *, #140, .F. ) ;
#165 = ORIENTED_EDGE ( 'NONE', *, *, #140, .T. ) ;
#166 = EDGE_LOOP ( 'NONE', ( #169, #168, #162, #165 ) ) ;
#167 = ORIENTED_EDGE ( 'NONE', *, *, #126, .T. ) ;
#168 = ORIENTED_EDGE ( 'NONE', *, *, #128, .F. ) ;
#169 = ORIENTED_EDGE ( 'NONE', *, *, #130, .T. ) ;
#170 = ORIENTED_EDGE ( 'NONE', *, *, #130, .F. ) ;
#171 = ORIENTED_EDGE ( 'NONE', *, *, #134, .T. ) ;
#172 = EDGE_LOOP ( 'NONE', ( #167, #35, #180, #118 ) ) ;
#173 = VERTEX_POINT ( 'NONE', #48 ) ;
#174 = EDGE_LOOP ( 'NONE', ( #179, #164, #176, #11 ) ) ;
#175 = ORIENTED_EDGE ( 'NONE', *, *, #132, .F. ) ;
#176 = ORIENTED_EDGE ( 'NONE', *, *, #127, .F. ) ;
#177 = VERTEX_POINT ( 'NONE', #47 ) ;
#178 = ORIENTED_EDGE ( 'NONE', *, *, #129, .T. ) ;
#179 = ORIENTED_EDGE ( 'NONE', *, *, #138, .T. ) ;
#180 = ORIENTED_EDGE ( 'NONE', *, *, #125, .F. ) ;
#181 = LENGTH_MEASURE_WITH_UNIT ( LENGTH_MEASURE( 0.02539999999999999900 ), #36 );
#182 = STYLED_ITEM ( 'NONE', ( #19 ), #196 ) ;
#183 = PRESENTATION_LAYER_ASSIGNMENT (  '', '', ( #182 ) ) ;
#184 = MECHANICAL_DESIGN_GEOMETRIC_PRESENTATION_REPRESENTATION (  '', ( #182 ), #198 ) ;
#185 = LENGTH_MEASURE_WITH_UNIT ( LENGTH_MEASURE( 0.02539999999999999900 ), #18 );
#186 = DIMENSIONAL_EXPONENTS ( 1.000000000000000000, 0.0000000000000000000, 0.0000000000000000000, 0.0000000000000000000, 0.0000000000000000000, 0.0000000000000000000, 0.0000000000000000000 ) ;
#187 = PRODUCT ( 'P750BB', 'P750BB', '', ( #22 ) ) ;
#188 = DIMENSIONAL_EXPONENTS ( 1.000000000000000000, 0.0000000000000000000, 0.0000000000000000000, 0.0000000000000000000, 0.0000000000000000000, 0.0000000000000000000, 0.0000000000000000000 ) ;
#189 = DIMENSIONAL_EXPONENTS ( 1.000000000000000000, 0.0000000000000000000, 0.0000000000000000000, 0.0000000000000000000, 0.0000000000000000000, 0.0000000000000000000, 0.0000000000000000000 ) ;
#190 = PRODUCT_DEFINITION_CONTEXT ( 'detailed design', #145, 'design' ) ;
#191 = MANIFOLD_SOLID_BREP ( 'Boss-Extrude1', #150 ) ;
#192 = PRODUCT_DEFINITION_SHAPE ( 'NONE', 'NONE',  #123 ) ;
#193 = UNCERTAINTY_MEASURE_WITH_UNIT (LENGTH_MEASURE( 1.000000000000000100E-005 ), #16, 'distance_accuracy_value', 'NONE');
#194 = UNCERTAINTY_MEASURE_WITH_UNIT (LENGTH_MEASURE( 1.000000000000000100E-005 ), #39, 'distance_accuracy_value', 'NONE');
#195 = UNCERTAINTY_MEASURE_WITH_UNIT (LENGTH_MEASURE( 1.000000000000000100E-005 ), #32, 'distance_accuracy_value', 'NONE');
#196 = ADVANCED_BREP_SHAPE_REPRESENTATION ( 'P750BB', ( #191, #147 ), #197 ) ;
#197 =( GEOMETRIC_REPRESENTATION_CONTEXT ( 3 ) GLOBAL_UNCERTAINTY_ASSIGNED_CONTEXT ( ( #195 ) ) GLOBAL_UNIT_ASSIGNED_CONTEXT ( ( #32, #31, #30 ) ) REPRESENTATION_CONTEXT ( 'NONE', 'WORKASPACE' ) );
#198 =( GEOMETRIC_REPRESENTATION_CONTEXT ( 3 ) GLOBAL_UNCERTAINTY_ASSIGNED_CONTEXT ( ( #193 ) ) GLOBAL_UNIT_ASSIGNED_CONTEXT ( ( #16, #13, #14 ) ) REPRESENTATION_CONTEXT ( 'NONE', 'WORKASPACE' ) );
#199 = FACE_OUTER_BOUND ( 'NONE', #159, .T. ) ;
#200 = MECHANICAL_DESIGN_GEOMETRIC_PRESENTATION_REPRESENTATION (  '', ( #206 ), #146 ) ;
#201 = AXIS2_PLACEMENT_3D ( 'NONE', #69, #68, #67 ) ;
#202 = FACE_OUTER_BOUND ( 'NONE', #166, .T. ) ;
#203 = FACE_OUTER_BOUND ( 'NONE', #160, .T. ) ;
#204 = AXIS2_PLACEMENT_3D ( 'NONE', #65, #64, #63 ) ;
#205 = FACE_OUTER_BOUND ( 'NONE', #172, .T. ) ;
#206 = STYLED_ITEM ( 'NONE', ( #41 ), #191 ) ;
#207 = VECTOR ( 'NONE', #60, 39.37007874015748100 ) ;
#208 = AXIS2_PLACEMENT_3D ( 'NONE', #58, #57, #56 ) ;
#209 = PRESENTATION_LAYER_ASSIGNMENT (  '', '', ( #206 ) ) ;
#210 = VECTOR ( 'NONE', #53, 39.37007874015748100 ) ;
#211 = AXIS2_PLACEMENT_3D ( 'NONE', #51, #50, #49 ) ;
ENDSEC;
END-ISO-10303-21;
