ISO-10303-21;
HEADER;
FILE_DESCRIPTION (( 'STEP AP214' ),
    '1' );
FILE_NAME ('P750BD.step',
    '2012-04-20T21:02:24',
    ( '' ),
    ( '' ),
    'SwSTEP 2.0',
    'SolidWorks 2012',
    '' );
FILE_SCHEMA (( 'AUTOMOTIVE_DESIGN' ));
ENDSEC;

DATA;
#1 = VECTOR ( 'NONE', #93, 39.37007874015748100 ) ;
#2 = VECTOR ( 'NONE', #96, 39.37007874015748100 ) ;
#3 = AXIS2_PLACEMENT_3D ( 'NONE', #54, #53, #52 ) ;
#4 = VECTOR ( 'NONE', #84, 39.37007874015748100 ) ;
#5 = VECTOR ( 'NONE', #81, 39.37007874015748100 ) ;
#6 = ORIENTED_EDGE ( 'NONE', *, *, #124, .T. ) ;
#7 = ORIENTED_EDGE ( 'NONE', *, *, #127, .T. ) ;
#8 = APPLICATION_PROTOCOL_DEFINITION ( 'draft international standard', 'automotive_design', 1998, #208 ) ;
#9 = SHAPE_DEFINITION_REPRESENTATION ( #201, #166 ) ;
#10 = DIRECTION ( 'NONE',  ( 1.000000000000000000, 0.0000000000000000000, 0.0000000000000000000 ) ) ;
#11 = DIRECTION ( 'NONE',  ( 0.0000000000000000000, 0.0000000000000000000, 1.000000000000000000 ) ) ;
#12 = CARTESIAN_POINT ( 'NONE',  ( 0.0000000000000000000, 0.0000000000000000000, 0.0000000000000000000 ) ) ;
#13 =( NAMED_UNIT ( * ) SI_UNIT ( $, .STERADIAN. ) SOLID_ANGLE_UNIT ( ) );
#14 =( NAMED_UNIT ( * ) PLANE_ANGLE_UNIT ( ) SI_UNIT ( $, .RADIAN. ) );
#15 =( CONVERSION_BASED_UNIT ( 'INCH', #196 ) LENGTH_UNIT ( ) NAMED_UNIT ( #198 ) );
#16 = PRESENTATION_STYLE_ASSIGNMENT (( #17 ) ) ;
#17 = SURFACE_STYLE_USAGE ( .BOTH. , #19 ) ;
#18 =( LENGTH_UNIT ( ) NAMED_UNIT ( * ) SI_UNIT ( $, .METRE. ) );
#19 = SURFACE_SIDE_STYLE ('',( #20 ) ) ;
#20 = SURFACE_STYLE_FILL_AREA ( #21 ) ;
#21 = FILL_AREA_STYLE ('',( #22 ) ) ;
#22 = FILL_AREA_STYLE_COLOUR ( '', #121 ) ;
#23 = APPLICATION_PROTOCOL_DEFINITION ( 'draft international standard', 'automotive_design', 1998, #207 ) ;
#24 =( NAMED_UNIT ( * ) SI_UNIT ( $, .STERADIAN. ) SOLID_ANGLE_UNIT ( ) );
#25 = ORIENTED_EDGE ( 'NONE', *, *, #132, .F. ) ;
#26 = ORIENTED_EDGE ( 'NONE', *, *, #133, .T. ) ;
#27 = PRODUCT_CONTEXT ( 'NONE', #207, 'mechanical' ) ;
#28 =( NAMED_UNIT ( * ) PLANE_ANGLE_UNIT ( ) SI_UNIT ( $, .RADIAN. ) );
#29 =( CONVERSION_BASED_UNIT ( 'INCH', #192 ) LENGTH_UNIT ( ) NAMED_UNIT ( #199 ) );
#30 =( NAMED_UNIT ( * ) SI_UNIT ( $, .STERADIAN. ) SOLID_ANGLE_UNIT ( ) );
#31 = ORIENTED_EDGE ( 'NONE', *, *, #130, .T. ) ;
#32 =( LENGTH_UNIT ( ) NAMED_UNIT ( * ) SI_UNIT ( $, .METRE. ) );
#33 =( NAMED_UNIT ( * ) PLANE_ANGLE_UNIT ( ) SI_UNIT ( $, .RADIAN. ) );
#34 = ORIENTED_EDGE ( 'NONE', *, *, #123, .F. ) ;
#35 =( CONVERSION_BASED_UNIT ( 'INCH', #191 ) LENGTH_UNIT ( ) NAMED_UNIT ( #200 ) );
#36 = ORIENTED_EDGE ( 'NONE', *, *, #125, .F. ) ;
#37 =( LENGTH_UNIT ( ) NAMED_UNIT ( * ) SI_UNIT ( $, .METRE. ) );
#38 = SURFACE_STYLE_USAGE ( .BOTH. , #40 ) ;
#39 = PRESENTATION_STYLE_ASSIGNMENT (( #38 ) ) ;
#40 = SURFACE_SIDE_STYLE ('',( #41 ) ) ;
#41 = SURFACE_STYLE_FILL_AREA ( #42 ) ;
#42 = FILL_AREA_STYLE ('',( #43 ) ) ;
#43 = FILL_AREA_STYLE_COLOUR ( '', #120 ) ;
#44 = CARTESIAN_POINT ( 'NONE',  ( 0.2499999999999998900, 0.0000000000000000000, -0.5000000000000000000 ) ) ;
#45 = CARTESIAN_POINT ( 'NONE',  ( 0.0000000000000000000, 0.7500000000000001100, 0.0000000000000000000 ) ) ;
#46 = CARTESIAN_POINT ( 'NONE',  ( 0.2500000000000000600, 0.0000000000000000000, 1.500192328955507400E-016 ) ) ;
#47 = CARTESIAN_POINT ( 'NONE',  ( 0.0000000000000000000, 0.7500000000000001100, -0.5000000000000000000 ) ) ;
#48 = CARTESIAN_POINT ( 'NONE',  ( 0.0000000000000000000, 0.0000000000000000000, -0.5000000000000000000 ) ) ;
#49 = CARTESIAN_POINT ( 'NONE',  ( 0.2500000000000000600, 0.7500000000000001100, 1.500192328955507400E-016 ) ) ;
#50 = CARTESIAN_POINT ( 'NONE',  ( 0.0000000000000000000, 0.0000000000000000000, 0.0000000000000000000 ) ) ;
#51 = CARTESIAN_POINT ( 'NONE',  ( 0.2499999999999998900, 0.7500000000000001100, -0.5000000000000000000 ) ) ;
#52 = DIRECTION ( 'NONE',  ( 0.0000000000000000000, 0.0000000000000000000, -1.000000000000000000 ) ) ;
#53 = DIRECTION ( 'NONE',  ( 0.0000000000000000000, -1.000000000000000000, 0.0000000000000000000 ) ) ;
#54 = CARTESIAN_POINT ( 'NONE',  ( 0.0000000000000000000, 0.7500000000000001100, 0.0000000000000000000 ) ) ;
#55 = PLANE ( 'NONE',  #3 ) ;
#56 = DIRECTION ( 'NONE',  ( 0.0000000000000000000, 0.0000000000000000000, -1.000000000000000000 ) ) ;
#57 = DIRECTION ( 'NONE',  ( 0.0000000000000000000, -1.000000000000000000, 0.0000000000000000000 ) ) ;
#58 = CARTESIAN_POINT ( 'NONE',  ( 0.0000000000000000000, 0.0000000000000000000, 0.0000000000000000000 ) ) ;
#59 = PLANE ( 'NONE',  #159 ) ;
#60 = DIRECTION ( 'NONE',  ( 0.0000000000000000000, 0.0000000000000000000, -1.000000000000000000 ) ) ;
#61 = DIRECTION ( 'NONE',  ( 1.000000000000000000, -0.0000000000000000000, 0.0000000000000000000 ) ) ;
#62 = CARTESIAN_POINT ( 'NONE',  ( 0.0000000000000000000, 0.7500000000000001100, 0.0000000000000000000 ) ) ;
#63 = PLANE ( 'NONE',  #157 ) ;
#64 = DIRECTION ( 'NONE',  ( 1.000000000000000000, 0.0000000000000000000, -0.0000000000000000000 ) ) ;
#65 = DIRECTION ( 'NONE',  ( 0.0000000000000000000, 0.0000000000000000000, 1.000000000000000000 ) ) ;
#66 = CARTESIAN_POINT ( 'NONE',  ( 0.0000000000000000000, 0.7500000000000001100, -0.5000000000000000000 ) ) ;
#67 = PLANE ( 'NONE',  #155 ) ;
#68 = DIRECTION ( 'NONE',  ( 3.414809992080329000E-016, 0.0000000000000000000, 1.000000000000000000 ) ) ;
#69 = DIRECTION ( 'NONE',  ( -1.000000000000000000, 0.0000000000000000000, 3.414809992080329000E-016 ) ) ;
#70 = CARTESIAN_POINT ( 'NONE',  ( 0.2499999999999998900, 0.7500000000000001100, -0.5000000000000000000 ) ) ;
#71 = PLANE ( 'NONE',  #152 ) ;
#72 = DIRECTION ( 'NONE',  ( -1.000000000000000000, 0.0000000000000000000, -6.000769315822029800E-016 ) ) ;
#73 = DIRECTION ( 'NONE',  ( 6.000769315822029800E-016, 0.0000000000000000000, -1.000000000000000000 ) ) ;
#74 = CARTESIAN_POINT ( 'NONE',  ( 0.2500000000000000600, 0.7500000000000001100, 1.500192328955507400E-016 ) ) ;
#75 = DIRECTION ( 'NONE',  ( -0.0000000000000000000, -0.0000000000000000000, 1.000000000000000000 ) ) ;
#76 = CARTESIAN_POINT ( 'NONE',  ( 0.0000000000000000000, 0.0000000000000000000, 0.0000000000000000000 ) ) ;
#77 = LINE ( 'NONE', #76, #148 ) ;
#78 = DIRECTION ( 'NONE',  ( -0.0000000000000000000, -0.0000000000000000000, 1.000000000000000000 ) ) ;
#79 = CARTESIAN_POINT ( 'NONE',  ( 0.0000000000000000000, 0.7500000000000001100, 0.0000000000000000000 ) ) ;
#80 = LINE ( 'NONE', #79, #146 ) ;
#81 = DIRECTION ( 'NONE',  ( 1.000000000000000000, -0.0000000000000000000, 6.000769315822028800E-016 ) ) ;
#82 = CARTESIAN_POINT ( 'NONE',  ( 0.2500000000000000600, 0.0000000000000000000, 1.500192328955507400E-016 ) ) ;
#83 = LINE ( 'NONE', #82, #5 ) ;
#84 = DIRECTION ( 'NONE',  ( -0.0000000000000000000, -1.000000000000000000, -0.0000000000000000000 ) ) ;
#85 = CARTESIAN_POINT ( 'NONE',  ( 0.2499999999999998900, 0.7500000000000001100, -0.5000000000000000000 ) ) ;
#86 = LINE ( 'NONE', #85, #4 ) ;
#87 = DIRECTION ( 'NONE',  ( 1.000000000000000000, -0.0000000000000000000, 6.000769315822028800E-016 ) ) ;
#88 = CARTESIAN_POINT ( 'NONE',  ( 0.2500000000000000600, 0.7500000000000001100, 1.500192328955507400E-016 ) ) ;
#89 = LINE ( 'NONE', #88, #206 ) ;
#90 = DIRECTION ( 'NONE',  ( -1.000000000000000000, -0.0000000000000000000, -0.0000000000000000000 ) ) ;
#91 = CARTESIAN_POINT ( 'NONE',  ( 0.0000000000000000000, 0.7500000000000001100, -0.5000000000000000000 ) ) ;
#92 = LINE ( 'NONE', #91, #141 ) ;
#93 = DIRECTION ( 'NONE',  ( -0.0000000000000000000, -1.000000000000000000, -0.0000000000000000000 ) ) ;
#94 = CARTESIAN_POINT ( 'NONE',  ( 0.0000000000000000000, 0.7500000000000001100, 0.0000000000000000000 ) ) ;
#95 = LINE ( 'NONE', #94, #1 ) ;
#96 = DIRECTION ( 'NONE',  ( -1.000000000000000000, -0.0000000000000000000, -0.0000000000000000000 ) ) ;
#97 = CARTESIAN_POINT ( 'NONE',  ( 0.0000000000000000000, 0.0000000000000000000, -0.5000000000000000000 ) ) ;
#98 = LINE ( 'NONE', #97, #2 ) ;
#99 = DIRECTION ( 'NONE',  ( -0.0000000000000000000, -1.000000000000000000, -0.0000000000000000000 ) ) ;
#100 = CARTESIAN_POINT ( 'NONE',  ( 0.2500000000000000600, 0.7500000000000001100, 1.500192328955507400E-016 ) ) ;
#101 = LINE ( 'NONE', #100, #210 ) ;
#102 = DIRECTION ( 'NONE',  ( -3.414809992080328500E-016, -0.0000000000000000000, -1.000000000000000000 ) ) ;
#103 = CARTESIAN_POINT ( 'NONE',  ( 0.2499999999999998900, 0.0000000000000000000, -0.5000000000000000000 ) ) ;
#104 = LINE ( 'NONE', #103, #211 ) ;
#105 = DIRECTION ( 'NONE',  ( -0.0000000000000000000, -1.000000000000000000, -0.0000000000000000000 ) ) ;
#106 = CARTESIAN_POINT ( 'NONE',  ( 0.0000000000000000000, 0.7500000000000001100, -0.5000000000000000000 ) ) ;
#107 = LINE ( 'NONE', #106, #209 ) ;
#108 = PLANE ( 'NONE',  #149 ) ;
#109 = DIRECTION ( 'NONE',  ( -3.414809992080328500E-016, -0.0000000000000000000, -1.000000000000000000 ) ) ;
#110 = CARTESIAN_POINT ( 'NONE',  ( 0.2499999999999998900, 0.7500000000000001100, -0.5000000000000000000 ) ) ;
#111 = LINE ( 'NONE', #110, #144 ) ;
#112 = ORIENTED_EDGE ( 'NONE', *, *, #131, .T. ) ;
#113 = ORIENTED_EDGE ( 'NONE', *, *, #130, .F. ) ;
#114 = ORIENTED_EDGE ( 'NONE', *, *, #125, .T. ) ;
#115 = ORIENTED_EDGE ( 'NONE', *, *, #122, .F. ) ;
#116 = ORIENTED_EDGE ( 'NONE', *, *, #129, .F. ) ;
#117 = ORIENTED_EDGE ( 'NONE', *, *, #126, .T. ) ;
#118 = ORIENTED_EDGE ( 'NONE', *, *, #128, .F. ) ;
#119 = PRODUCT_DEFINITION ( 'UNKNOWN', '', #162, #202 ) ;
#120 = COLOUR_RGB ( '',0.5686274509803921400, 0.5686274509803921400, 0.5882352941176470800 ) ;
#121 = COLOUR_RGB ( '',0.5686274509803921400, 0.5686274509803921400, 0.5882352941176470800 ) ;
#122 = EDGE_CURVE ( 'NONE', #171, #167, #111, .T. ) ;
#123 = EDGE_CURVE ( 'NONE', #178, #177, #107, .T. ) ;
#124 = EDGE_CURVE ( 'NONE', #180, #184, #104, .T. ) ;
#125 = EDGE_CURVE ( 'NONE', #171, #180, #101, .T. ) ;
#126 = EDGE_CURVE ( 'NONE', #184, #177, #98, .T. ) ;
#127 = EDGE_CURVE ( 'NONE', #183, #170, #95, .T. ) ;
#128 = EDGE_CURVE ( 'NONE', #167, #178, #92, .T. ) ;
#129 = EDGE_CURVE ( 'NONE', #183, #171, #89, .T. ) ;
#130 = EDGE_CURVE ( 'NONE', #167, #184, #86, .T. ) ;
#131 = EDGE_CURVE ( 'NONE', #170, #180, #83, .T. ) ;
#132 = EDGE_CURVE ( 'NONE', #178, #183, #80, .T. ) ;
#133 = EDGE_CURVE ( 'NONE', #177, #170, #77, .T. ) ;
#134 = ADVANCED_FACE ( 'NONE', ( #143 ), #108, .F. ) ;
#135 = ADVANCED_FACE ( 'NONE', ( #150 ), #71, .F. ) ;
#136 = PRODUCT_RELATED_PRODUCT_CATEGORY ( 'part', '', ( #197 ) ) ;
#137 = ADVANCED_FACE ( 'NONE', ( #153 ), #67, .F. ) ;
#138 = ADVANCED_FACE ( 'NONE', ( #154 ), #63, .F. ) ;
#139 = ADVANCED_FACE ( 'NONE', ( #156 ), #59, .T. ) ;
#140 = ADVANCED_FACE ( 'NONE', ( #158 ), #55, .F. ) ;
#141 = VECTOR ( 'NONE', #90, 39.37007874015748100 ) ;
#142 = MECHANICAL_DESIGN_GEOMETRIC_PRESENTATION_REPRESENTATION (  '', ( #151 ), #160 ) ;
#143 = FACE_OUTER_BOUND ( 'NONE', #189, .T. ) ;
#144 = VECTOR ( 'NONE', #109, 39.37007874015748100 ) ;
#145 = CLOSED_SHELL ( 'NONE', ( #134, #135, #137, #138, #140, #139 ) ) ;
#146 = VECTOR ( 'NONE', #78, 39.37007874015748100 ) ;
#147 = PRESENTATION_LAYER_ASSIGNMENT (  '', '', ( #151 ) ) ;
#148 = VECTOR ( 'NONE', #75, 39.37007874015748100 ) ;
#149 = AXIS2_PLACEMENT_3D ( 'NONE', #74, #73, #72 ) ;
#150 = FACE_OUTER_BOUND ( 'NONE', #190, .T. ) ;
#151 = STYLED_ITEM ( 'NONE', ( #39 ), #203 ) ;
#152 = AXIS2_PLACEMENT_3D ( 'NONE', #70, #69, #68 ) ;
#153 = FACE_OUTER_BOUND ( 'NONE', #173, .T. ) ;
#154 = FACE_OUTER_BOUND ( 'NONE', #169, .T. ) ;
#155 = AXIS2_PLACEMENT_3D ( 'NONE', #66, #65, #64 ) ;
#156 = FACE_OUTER_BOUND ( 'NONE', #188, .T. ) ;
#157 = AXIS2_PLACEMENT_3D ( 'NONE', #62, #61, #60 ) ;
#158 = FACE_OUTER_BOUND ( 'NONE', #172, .T. ) ;
#159 = AXIS2_PLACEMENT_3D ( 'NONE', #58, #57, #56 ) ;
#160 =( GEOMETRIC_REPRESENTATION_CONTEXT ( 3 ) GLOBAL_UNCERTAINTY_ASSIGNED_CONTEXT ( ( #163 ) ) GLOBAL_UNIT_ASSIGNED_CONTEXT ( ( #35, #33, #30 ) ) REPRESENTATION_CONTEXT ( 'NONE', 'WORKASPACE' ) );
#161 = AXIS2_PLACEMENT_3D ( 'NONE', #12, #11, #10 ) ;
#162 = PRODUCT_DEFINITION_FORMATION_WITH_SPECIFIED_SOURCE ( 'ANY', '', #197, .NOT_KNOWN. ) ;
#163 = UNCERTAINTY_MEASURE_WITH_UNIT (LENGTH_MEASURE( 1.000000000000000100E-005 ), #35, 'distance_accuracy_value', 'NONE');
#164 = UNCERTAINTY_MEASURE_WITH_UNIT (LENGTH_MEASURE( 1.000000000000000100E-005 ), #29, 'distance_accuracy_value', 'NONE');
#165 = UNCERTAINTY_MEASURE_WITH_UNIT (LENGTH_MEASURE( 1.000000000000000100E-005 ), #15, 'distance_accuracy_value', 'NONE');
#166 = ADVANCED_BREP_SHAPE_REPRESENTATION ( 'P750BD', ( #203, #161 ), #204 ) ;
#167 = VERTEX_POINT ( 'NONE', #51 ) ;
#168 = ORIENTED_EDGE ( 'NONE', *, *, #128, .T. ) ;
#169 = EDGE_LOOP ( 'NONE', ( #26, #179, #25, #175 ) ) ;
#170 = VERTEX_POINT ( 'NONE', #50 ) ;
#171 = VERTEX_POINT ( 'NONE', #49 ) ;
#172 = EDGE_LOOP ( 'NONE', ( #174, #182, #168, #185 ) ) ;
#173 = EDGE_LOOP ( 'NONE', ( #117, #34, #118, #31 ) ) ;
#174 = ORIENTED_EDGE ( 'NONE', *, *, #129, .T. ) ;
#175 = ORIENTED_EDGE ( 'NONE', *, *, #123, .T. ) ;
#176 = ORIENTED_EDGE ( 'NONE', *, *, #131, .F. ) ;
#177 = VERTEX_POINT ( 'NONE', #48 ) ;
#178 = VERTEX_POINT ( 'NONE', #47 ) ;
#179 = ORIENTED_EDGE ( 'NONE', *, *, #127, .F. ) ;
#180 = VERTEX_POINT ( 'NONE', #46 ) ;
#181 = ORIENTED_EDGE ( 'NONE', *, *, #124, .F. ) ;
#182 = ORIENTED_EDGE ( 'NONE', *, *, #122, .T. ) ;
#183 = VERTEX_POINT ( 'NONE', #45 ) ;
#184 = VERTEX_POINT ( 'NONE', #44 ) ;
#185 = ORIENTED_EDGE ( 'NONE', *, *, #132, .T. ) ;
#186 = ORIENTED_EDGE ( 'NONE', *, *, #133, .F. ) ;
#187 = ORIENTED_EDGE ( 'NONE', *, *, #126, .F. ) ;
#188 = EDGE_LOOP ( 'NONE', ( #176, #186, #187, #181 ) ) ;
#189 = EDGE_LOOP ( 'NONE', ( #112, #36, #116, #7 ) ) ;
#190 = EDGE_LOOP ( 'NONE', ( #6, #113, #115, #114 ) ) ;
#191 = LENGTH_MEASURE_WITH_UNIT ( LENGTH_MEASURE( 0.02539999999999999900 ), #37 );
#192 = LENGTH_MEASURE_WITH_UNIT ( LENGTH_MEASURE( 0.02539999999999999900 ), #32 );
#193 = STYLED_ITEM ( 'NONE', ( #16 ), #166 ) ;
#194 = PRESENTATION_LAYER_ASSIGNMENT (  '', '', ( #193 ) ) ;
#195 = MECHANICAL_DESIGN_GEOMETRIC_PRESENTATION_REPRESENTATION (  '', ( #193 ), #205 ) ;
#196 = LENGTH_MEASURE_WITH_UNIT ( LENGTH_MEASURE( 0.02539999999999999900 ), #18 );
#197 = PRODUCT ( 'P750BD', 'P750BD', '', ( #27 ) ) ;
#198 = DIMENSIONAL_EXPONENTS ( 1.000000000000000000, 0.0000000000000000000, 0.0000000000000000000, 0.0000000000000000000, 0.0000000000000000000, 0.0000000000000000000, 0.0000000000000000000 ) ;
#199 = DIMENSIONAL_EXPONENTS ( 1.000000000000000000, 0.0000000000000000000, 0.0000000000000000000, 0.0000000000000000000, 0.0000000000000000000, 0.0000000000000000000, 0.0000000000000000000 ) ;
#200 = DIMENSIONAL_EXPONENTS ( 1.000000000000000000, 0.0000000000000000000, 0.0000000000000000000, 0.0000000000000000000, 0.0000000000000000000, 0.0000000000000000000, 0.0000000000000000000 ) ;
#201 = PRODUCT_DEFINITION_SHAPE ( 'NONE', 'NONE',  #119 ) ;
#202 = PRODUCT_DEFINITION_CONTEXT ( 'detailed design', #208, 'design' ) ;
#203 = MANIFOLD_SOLID_BREP ( 'Boss-Extrude1', #145 ) ;
#204 =( GEOMETRIC_REPRESENTATION_CONTEXT ( 3 ) GLOBAL_UNCERTAINTY_ASSIGNED_CONTEXT ( ( #164 ) ) GLOBAL_UNIT_ASSIGNED_CONTEXT ( ( #29, #28, #24 ) ) REPRESENTATION_CONTEXT ( 'NONE', 'WORKASPACE' ) );
#205 =( GEOMETRIC_REPRESENTATION_CONTEXT ( 3 ) GLOBAL_UNCERTAINTY_ASSIGNED_CONTEXT ( ( #165 ) ) GLOBAL_UNIT_ASSIGNED_CONTEXT ( ( #15, #14, #13 ) ) REPRESENTATION_CONTEXT ( 'NONE', 'WORKASPACE' ) );
#206 = VECTOR ( 'NONE', #87, 39.37007874015748100 ) ;
#207 = APPLICATION_CONTEXT ( 'automotive_design' ) ;
#208 = APPLICATION_CONTEXT ( 'automotive_design' ) ;
#209 = VECTOR ( 'NONE', #105, 39.37007874015748100 ) ;
#210 = VECTOR ( 'NONE', #99, 39.37007874015748100 ) ;
#211 = VECTOR ( 'NONE', #102, 39.37007874015748100 ) ;
ENDSEC;
END-ISO-10303-21;
