ISO-10303-21;
HEADER;
FILE_DESCRIPTION (( 'STEP AP214' ),
    '1' );
FILE_NAME ('D032H.step',
    '2012-04-20T20:51:04',
    ( '' ),
    ( '' ),
    'SwSTEP 2.0',
    'SolidWorks 2012',
    '' );
FILE_SCHEMA (( 'AUTOMOTIVE_DESIGN' ));
ENDSEC;

DATA;
#1 = UNCERTAINTY_MEASURE_WITH_UNIT (LENGTH_MEASURE( 1.000000000000000100E-005 ), #78, 'distance_accuracy_value', 'NONE');
#2 = PRESENTATION_STYLE_ASSIGNMENT (( #61 ) ) ;
#3 = UNCERTAINTY_MEASURE_WITH_UNIT (LENGTH_MEASURE( 1.000000000000000100E-005 ), #74, 'distance_accuracy_value', 'NONE');
#4 = UNCERTAINTY_MEASURE_WITH_UNIT (LENGTH_MEASURE( 1.000000000000000100E-005 ), #89, 'distance_accuracy_value', 'NONE');
#5 = ADVANCED_BREP_SHAPE_REPRESENTATION ( 'D032H', ( #136, #7 ), #71 ) ;
#6 = LENGTH_MEASURE_WITH_UNIT ( LENGTH_MEASURE( 0.02539999999999999900 ), #77 );
#7 = AXIS2_PLACEMENT_3D ( 'NONE', #92, #93, #94 ) ;
#8 = AXIS2_PLACEMENT_3D ( 'NONE', #102, #101, #100 ) ;
#9 = LENGTH_MEASURE_WITH_UNIT ( LENGTH_MEASURE( 0.02539999999999999900 ), #88 );
#10 = AXIS2_PLACEMENT_3D ( 'NONE', #99, #98, #68 ) ;
#11 = MECHANICAL_DESIGN_GEOMETRIC_PRESENTATION_REPRESENTATION (  '', ( #14 ), #72 ) ;
#12 = PRESENTATION_LAYER_ASSIGNMENT (  '', '', ( #14 ) ) ;
#13 = STYLED_ITEM ( 'NONE', ( #2 ), #136 ) ;
#14 = STYLED_ITEM ( 'NONE', ( #87 ), #5 ) ;
#15 = VECTOR ( 'NONE', #106, 39.37007874015748100 ) ;
#16 = PRESENTATION_LAYER_ASSIGNMENT (  '', '', ( #13 ) ) ;
#17 = VECTOR ( 'NONE', #64, 39.37007874015748100 ) ;
#18 = LENGTH_MEASURE_WITH_UNIT ( LENGTH_MEASURE( 0.02539999999999999900 ), #73 );
#19 = MECHANICAL_DESIGN_GEOMETRIC_PRESENTATION_REPRESENTATION (  '', ( #13 ), #70 ) ;
#20 = CARTESIAN_POINT ( 'NONE',  ( 0.0000000000000000000, 0.03125000000000000000, 0.0000000000000000000 ) ) ;
#21 = DIRECTION ( 'NONE',  ( 0.0000000000000000000, -0.0000000000000000000, 1.000000000000000000 ) ) ;
#22 = DIRECTION ( 'NONE',  ( 0.0000000000000000000, 1.000000000000000000, 0.0000000000000000000 ) ) ;
#23 = CARTESIAN_POINT ( 'NONE',  ( 0.0000000000000000000, 0.0000000000000000000, 0.0000000000000000000 ) ) ;
#24 = PLANE ( 'NONE',  #50 ) ;
#25 = DIRECTION ( 'NONE',  ( 0.0000000000000000000, -0.0000000000000000000, 1.000000000000000000 ) ) ;
#26 = DIRECTION ( 'NONE',  ( 0.0000000000000000000, 1.000000000000000000, 0.0000000000000000000 ) ) ;
#27 = CARTESIAN_POINT ( 'NONE',  ( 0.0000000000000000000, 0.03125000000000000000, 0.0000000000000000000 ) ) ;
#28 = PLANE ( 'NONE',  #52 ) ;
#29 = DIRECTION ( 'NONE',  ( 0.0000000000000000000, 0.0000000000000000000, -1.000000000000000000 ) ) ;
#30 = DIRECTION ( 'NONE',  ( -0.0000000000000000000, -1.000000000000000000, -0.0000000000000000000 ) ) ;
#31 = CARTESIAN_POINT ( 'NONE',  ( 0.0000000000000000000, 0.03125000000000000000, 0.0000000000000000000 ) ) ;
#32 = CARTESIAN_POINT ( 'NONE',  ( 0.0000000000000000000, 0.03125000000000000000, -0.5000000000000000000 ) ) ;
#33 = CARTESIAN_POINT ( 'NONE',  ( 6.123233995736766000E-017, 0.0000000000000000000, 0.5000000000000000000 ) ) ;
#34 = CARTESIAN_POINT ( 'NONE',  ( 0.0000000000000000000, 0.0000000000000000000, -0.5000000000000000000 ) ) ;
#35 = CARTESIAN_POINT ( 'NONE',  ( 6.123233995736766000E-017, 0.03125000000000000000, 0.5000000000000000000 ) ) ;
#36 = VERTEX_POINT ( 'NONE', #35 ) ;
#37 = VERTEX_POINT ( 'NONE', #34 ) ;
#38 = VERTEX_POINT ( 'NONE', #33 ) ;
#39 = VERTEX_POINT ( 'NONE', #32 ) ;
#40 = EDGE_LOOP ( 'NONE', ( #137, #147 ) ) ;
#41 = EDGE_LOOP ( 'NONE', ( #44, #143, #144, #142 ) ) ;
#42 = EDGE_LOOP ( 'NONE', ( #138, #145 ) ) ;
#43 = EDGE_LOOP ( 'NONE', ( #141, #139, #140, #146 ) ) ;
#44 = ORIENTED_EDGE ( 'NONE', *, *, #117, .F. ) ;
#45 = PRODUCT_DEFINITION_CONTEXT ( 'detailed design', #148, 'design' ) ;
#46 = PRODUCT_DEFINITION_SHAPE ( 'NONE', 'NONE',  #120 ) ;
#47 = FACE_OUTER_BOUND ( 'NONE', #43, .T. ) ;
#48 = AXIS2_PLACEMENT_3D ( 'NONE', #105, #104, #103 ) ;
#49 = CYLINDRICAL_SURFACE ( 'NONE', #59, 0.5000000000000000000 ) ;
#50 = AXIS2_PLACEMENT_3D ( 'NONE', #23, #22, #21 ) ;
#51 = CYLINDRICAL_SURFACE ( 'NONE', #53, 0.5000000000000000000 ) ;
#52 = AXIS2_PLACEMENT_3D ( 'NONE', #27, #26, #25 ) ;
#53 = AXIS2_PLACEMENT_3D ( 'NONE', #111, #110, #109 ) ;
#54 = FACE_OUTER_BOUND ( 'NONE', #40, .T. ) ;
#55 = FACE_OUTER_BOUND ( 'NONE', #41, .T. ) ;
#56 = AXIS2_PLACEMENT_3D ( 'NONE', #20, #113, #112 ) ;
#57 = CLOSED_SHELL ( 'NONE', ( #114, #119, #115, #116 ) ) ;
#58 = FACE_OUTER_BOUND ( 'NONE', #42, .T. ) ;
#59 = AXIS2_PLACEMENT_3D ( 'NONE', #31, #30, #29 ) ;
#60 = SURFACE_SIDE_STYLE ('',( #67 ) ) ;
#61 = SURFACE_STYLE_USAGE ( .BOTH. , #60 ) ;
#62 = FILL_AREA_STYLE ('',( #63 ) ) ;
#63 = FILL_AREA_STYLE_COLOUR ( '', #130 ) ;
#64 = DIRECTION ( 'NONE',  ( -0.0000000000000000000, -1.000000000000000000, -0.0000000000000000000 ) ) ;
#65 = CARTESIAN_POINT ( 'NONE',  ( 6.123233995736766000E-017, 0.03125000000000000000, 0.5000000000000000000 ) ) ;
#66 = LINE ( 'NONE', #65, #17 ) ;
#67 = SURFACE_STYLE_FILL_AREA ( #62 ) ;
#68 = DIRECTION ( 'NONE',  ( 0.0000000000000000000, 0.0000000000000000000, 1.000000000000000000 ) ) ;
#69 = PRODUCT_DEFINITION_FORMATION_WITH_SPECIFIED_SOURCE ( 'ANY', '', #135, .NOT_KNOWN. ) ;
#70 =( GEOMETRIC_REPRESENTATION_CONTEXT ( 3 ) GLOBAL_UNCERTAINTY_ASSIGNED_CONTEXT ( ( #3 ) ) GLOBAL_UNIT_ASSIGNED_CONTEXT ( ( #74, #75, #76 ) ) REPRESENTATION_CONTEXT ( 'NONE', 'WORKASPACE' ) );
#71 =( GEOMETRIC_REPRESENTATION_CONTEXT ( 3 ) GLOBAL_UNCERTAINTY_ASSIGNED_CONTEXT ( ( #1 ) ) GLOBAL_UNIT_ASSIGNED_CONTEXT ( ( #78, #79, #80 ) ) REPRESENTATION_CONTEXT ( 'NONE', 'WORKASPACE' ) );
#72 =( GEOMETRIC_REPRESENTATION_CONTEXT ( 3 ) GLOBAL_UNCERTAINTY_ASSIGNED_CONTEXT ( ( #4 ) ) GLOBAL_UNIT_ASSIGNED_CONTEXT ( ( #89, #90, #91 ) ) REPRESENTATION_CONTEXT ( 'NONE', 'WORKASPACE' ) );
#73 =( LENGTH_UNIT ( ) NAMED_UNIT ( * ) SI_UNIT ( $, .METRE. ) );
#74 =( CONVERSION_BASED_UNIT ( 'INCH', #18 ) LENGTH_UNIT ( ) NAMED_UNIT ( #132 ) );
#75 =( NAMED_UNIT ( * ) PLANE_ANGLE_UNIT ( ) SI_UNIT ( $, .RADIAN. ) );
#76 =( NAMED_UNIT ( * ) SI_UNIT ( $, .STERADIAN. ) SOLID_ANGLE_UNIT ( ) );
#77 =( LENGTH_UNIT ( ) NAMED_UNIT ( * ) SI_UNIT ( $, .METRE. ) );
#78 =( CONVERSION_BASED_UNIT ( 'INCH', #6 ) LENGTH_UNIT ( ) NAMED_UNIT ( #133 ) );
#79 =( NAMED_UNIT ( * ) PLANE_ANGLE_UNIT ( ) SI_UNIT ( $, .RADIAN. ) );
#80 =( NAMED_UNIT ( * ) SI_UNIT ( $, .STERADIAN. ) SOLID_ANGLE_UNIT ( ) );
#81 = APPLICATION_PROTOCOL_DEFINITION ( 'draft international standard', 'automotive_design', 1998, #149 ) ;
#82 = FILL_AREA_STYLE_COLOUR ( '', #131 ) ;
#83 = FILL_AREA_STYLE ('',( #82 ) ) ;
#84 = SURFACE_STYLE_FILL_AREA ( #83 ) ;
#85 = SURFACE_SIDE_STYLE ('',( #84 ) ) ;
#86 = SURFACE_STYLE_USAGE ( .BOTH. , #85 ) ;
#87 = PRESENTATION_STYLE_ASSIGNMENT (( #86 ) ) ;
#88 =( LENGTH_UNIT ( ) NAMED_UNIT ( * ) SI_UNIT ( $, .METRE. ) );
#89 =( CONVERSION_BASED_UNIT ( 'INCH', #9 ) LENGTH_UNIT ( ) NAMED_UNIT ( #134 ) );
#90 =( NAMED_UNIT ( * ) PLANE_ANGLE_UNIT ( ) SI_UNIT ( $, .RADIAN. ) );
#91 =( NAMED_UNIT ( * ) SI_UNIT ( $, .STERADIAN. ) SOLID_ANGLE_UNIT ( ) );
#92 = CARTESIAN_POINT ( 'NONE',  ( 0.0000000000000000000, 0.0000000000000000000, 0.0000000000000000000 ) ) ;
#93 = DIRECTION ( 'NONE',  ( 0.0000000000000000000, 0.0000000000000000000, 1.000000000000000000 ) ) ;
#94 = DIRECTION ( 'NONE',  ( 1.000000000000000000, 0.0000000000000000000, 0.0000000000000000000 ) ) ;
#95 = SHAPE_DEFINITION_REPRESENTATION ( #46, #5 ) ;
#96 = PRODUCT_CONTEXT ( 'NONE', #149, 'mechanical' ) ;
#97 = APPLICATION_PROTOCOL_DEFINITION ( 'draft international standard', 'automotive_design', 1998, #148 ) ;
#98 = DIRECTION ( 'NONE',  ( 0.0000000000000000000, 1.000000000000000000, 0.0000000000000000000 ) ) ;
#99 = CARTESIAN_POINT ( 'NONE',  ( 0.0000000000000000000, 0.0000000000000000000, 0.0000000000000000000 ) ) ;
#100 = DIRECTION ( 'NONE',  ( 0.0000000000000000000, 0.0000000000000000000, 1.000000000000000000 ) ) ;
#101 = DIRECTION ( 'NONE',  ( 0.0000000000000000000, 1.000000000000000000, 0.0000000000000000000 ) ) ;
#102 = CARTESIAN_POINT ( 'NONE',  ( 0.0000000000000000000, 0.03125000000000000000, 0.0000000000000000000 ) ) ;
#103 = DIRECTION ( 'NONE',  ( 0.0000000000000000000, 0.0000000000000000000, 1.000000000000000000 ) ) ;
#104 = DIRECTION ( 'NONE',  ( 0.0000000000000000000, 1.000000000000000000, 0.0000000000000000000 ) ) ;
#105 = CARTESIAN_POINT ( 'NONE',  ( 0.0000000000000000000, 0.0000000000000000000, 0.0000000000000000000 ) ) ;
#106 = DIRECTION ( 'NONE',  ( -0.0000000000000000000, -1.000000000000000000, -0.0000000000000000000 ) ) ;
#107 = CARTESIAN_POINT ( 'NONE',  ( 0.0000000000000000000, 0.03125000000000000000, -0.5000000000000000000 ) ) ;
#108 = LINE ( 'NONE', #107, #15 ) ;
#109 = DIRECTION ( 'NONE',  ( 0.0000000000000000000, 0.0000000000000000000, -1.000000000000000000 ) ) ;
#110 = DIRECTION ( 'NONE',  ( -0.0000000000000000000, -1.000000000000000000, -0.0000000000000000000 ) ) ;
#111 = CARTESIAN_POINT ( 'NONE',  ( 0.0000000000000000000, 0.03125000000000000000, 0.0000000000000000000 ) ) ;
#112 = DIRECTION ( 'NONE',  ( 0.0000000000000000000, 0.0000000000000000000, 1.000000000000000000 ) ) ;
#113 = DIRECTION ( 'NONE',  ( 0.0000000000000000000, 1.000000000000000000, 0.0000000000000000000 ) ) ;
#114 = ADVANCED_FACE ( 'NONE', ( #55 ), #49, .T. ) ;
#115 = ADVANCED_FACE ( 'NONE', ( #58 ), #28, .T. ) ;
#116 = ADVANCED_FACE ( 'NONE', ( #54 ), #24, .F. ) ;
#117 = EDGE_CURVE ( 'NONE', #36, #39, #118, .T. ) ;
#118 = CIRCLE ( 'NONE', #56, 0.5000000000000000000 ) ;
#119 = ADVANCED_FACE ( 'NONE', ( #47 ), #51, .T. ) ;
#120 = PRODUCT_DEFINITION ( 'UNKNOWN', '', #69, #45 ) ;
#121 = CIRCLE ( 'NONE', #48, 0.5000000000000000000 ) ;
#122 = PRODUCT_RELATED_PRODUCT_CATEGORY ( 'part', '', ( #135 ) ) ;
#123 = EDGE_CURVE ( 'NONE', #39, #37, #108, .T. ) ;
#124 = EDGE_CURVE ( 'NONE', #37, #38, #121, .T. ) ;
#125 = EDGE_CURVE ( 'NONE', #39, #36, #129, .T. ) ;
#126 = EDGE_CURVE ( 'NONE', #38, #37, #128, .T. ) ;
#127 = EDGE_CURVE ( 'NONE', #36, #38, #66, .T. ) ;
#128 = CIRCLE ( 'NONE', #10, 0.5000000000000000000 ) ;
#129 = CIRCLE ( 'NONE', #8, 0.5000000000000000000 ) ;
#130 = COLOUR_RGB ( '',0.5686274509803921400, 0.5686274509803921400, 0.5882352941176470800 ) ;
#131 = COLOUR_RGB ( '',0.5686274509803921400, 0.5686274509803921400, 0.5882352941176470800 ) ;
#132 = DIMENSIONAL_EXPONENTS ( 1.000000000000000000, 0.0000000000000000000, 0.0000000000000000000, 0.0000000000000000000, 0.0000000000000000000, 0.0000000000000000000, 0.0000000000000000000 ) ;
#133 = DIMENSIONAL_EXPONENTS ( 1.000000000000000000, 0.0000000000000000000, 0.0000000000000000000, 0.0000000000000000000, 0.0000000000000000000, 0.0000000000000000000, 0.0000000000000000000 ) ;
#134 = DIMENSIONAL_EXPONENTS ( 1.000000000000000000, 0.0000000000000000000, 0.0000000000000000000, 0.0000000000000000000, 0.0000000000000000000, 0.0000000000000000000, 0.0000000000000000000 ) ;
#135 = PRODUCT ( 'D032H', 'D032H', '', ( #96 ) ) ;
#136 = MANIFOLD_SOLID_BREP ( 'Boss-Extrude1', #57 ) ;
#137 = ORIENTED_EDGE ( 'NONE', *, *, #124, .F. ) ;
#138 = ORIENTED_EDGE ( 'NONE', *, *, #125, .T. ) ;
#139 = ORIENTED_EDGE ( 'NONE', *, *, #125, .F. ) ;
#140 = ORIENTED_EDGE ( 'NONE', *, *, #123, .T. ) ;
#141 = ORIENTED_EDGE ( 'NONE', *, *, #127, .F. ) ;
#142 = ORIENTED_EDGE ( 'NONE', *, *, #123, .F. ) ;
#143 = ORIENTED_EDGE ( 'NONE', *, *, #127, .T. ) ;
#144 = ORIENTED_EDGE ( 'NONE', *, *, #126, .T. ) ;
#145 = ORIENTED_EDGE ( 'NONE', *, *, #117, .T. ) ;
#146 = ORIENTED_EDGE ( 'NONE', *, *, #124, .T. ) ;
#147 = ORIENTED_EDGE ( 'NONE', *, *, #126, .F. ) ;
#148 = APPLICATION_CONTEXT ( 'automotive_design' ) ;
#149 = APPLICATION_CONTEXT ( 'automotive_design' ) ;
ENDSEC;
END-ISO-10303-21;
