ISO-10303-21;
HEADER;
FILE_DESCRIPTION (( 'STEP AP214' ),
    '1' );
FILE_NAME ('P094HL.step',
    '2012-04-20T21:00:16',
    ( '' ),
    ( '' ),
    'SwSTEP 2.0',
    'SolidWorks 2012',
    '' );
FILE_SCHEMA (( 'AUTOMOTIVE_DESIGN' ));
ENDSEC;

DATA;
#1 = DIMENSIONAL_EXPONENTS ( 1.000000000000000000, 0.0000000000000000000, 0.0000000000000000000, 0.0000000000000000000, 0.0000000000000000000, 0.0000000000000000000, 0.0000000000000000000 ) ;
#2 = DIMENSIONAL_EXPONENTS ( 1.000000000000000000, 0.0000000000000000000, 0.0000000000000000000, 0.0000000000000000000, 0.0000000000000000000, 0.0000000000000000000, 0.0000000000000000000 ) ;
#3 = PRODUCT ( 'P094HL', 'P094HL', '', ( #22 ) ) ;
#4 = DIMENSIONAL_EXPONENTS ( 1.000000000000000000, 0.0000000000000000000, 0.0000000000000000000, 0.0000000000000000000, 0.0000000000000000000, 0.0000000000000000000, 0.0000000000000000000 ) ;
#5 = AXIS2_PLACEMENT_3D ( 'NONE', #89, #88, #87 ) ;
#6 = FACE_OUTER_BOUND ( 'NONE', #137, .T. ) ;
#7 = LENGTH_MEASURE_WITH_UNIT ( LENGTH_MEASURE( 0.02539999999999999900 ), #97 );
#8 = MECHANICAL_DESIGN_GEOMETRIC_PRESENTATION_REPRESENTATION (  '', ( #11 ), #18 ) ;
#9 = PRESENTATION_LAYER_ASSIGNMENT (  '', '', ( #11 ) ) ;
#10 = AXIS2_PLACEMENT_3D ( 'NONE', #106, #105, #104 ) ;
#11 = STYLED_ITEM ( 'NONE', ( #98 ), #190 ) ;
#12 = FACE_OUTER_BOUND ( 'NONE', #138, .T. ) ;
#13 = FACE_OUTER_BOUND ( 'NONE', #139, .T. ) ;
#14 = CLOSED_SHELL ( 'NONE', ( #194, #187, #189, #207, #208, #209 ) ) ;
#15 = AXIS2_PLACEMENT_3D ( 'NONE', #110, #109, #108 ) ;
#16 =( GEOMETRIC_REPRESENTATION_CONTEXT ( 3 ) GLOBAL_UNCERTAINTY_ASSIGNED_CONTEXT ( ( #158 ) ) GLOBAL_UNIT_ASSIGNED_CONTEXT ( ( #40, #39, #38 ) ) REPRESENTATION_CONTEXT ( 'NONE', 'WORKASPACE' ) );
#17 =( GEOMETRIC_REPRESENTATION_CONTEXT ( 3 ) GLOBAL_UNCERTAINTY_ASSIGNED_CONTEXT ( ( #160 ) ) GLOBAL_UNIT_ASSIGNED_CONTEXT ( ( #29, #28, #27 ) ) REPRESENTATION_CONTEXT ( 'NONE', 'WORKASPACE' ) );
#18 =( GEOMETRIC_REPRESENTATION_CONTEXT ( 3 ) GLOBAL_UNCERTAINTY_ASSIGNED_CONTEXT ( ( #161 ) ) GLOBAL_UNIT_ASSIGNED_CONTEXT ( ( #96, #95, #94 ) ) REPRESENTATION_CONTEXT ( 'NONE', 'WORKASPACE' ) );
#19 = ORIENTED_EDGE ( 'NONE', *, *, #201, .T. ) ;
#20 = ORIENTED_EDGE ( 'NONE', *, *, #199, .T. ) ;
#21 = APPLICATION_PROTOCOL_DEFINITION ( 'draft international standard', 'automotive_design', 1998, #157 ) ;
#22 = PRODUCT_CONTEXT ( 'NONE', #156, 'mechanical' ) ;
#23 = SHAPE_DEFINITION_REPRESENTATION ( #192, #159 ) ;
#24 = DIRECTION ( 'NONE',  ( 1.000000000000000000, 0.0000000000000000000, 0.0000000000000000000 ) ) ;
#25 = DIRECTION ( 'NONE',  ( 0.0000000000000000000, 0.0000000000000000000, 1.000000000000000000 ) ) ;
#26 = CARTESIAN_POINT ( 'NONE',  ( 0.0000000000000000000, 0.0000000000000000000, 0.0000000000000000000 ) ) ;
#27 =( NAMED_UNIT ( * ) SI_UNIT ( $, .STERADIAN. ) SOLID_ANGLE_UNIT ( ) );
#28 =( NAMED_UNIT ( * ) PLANE_ANGLE_UNIT ( ) SI_UNIT ( $, .RADIAN. ) );
#29 =( CONVERSION_BASED_UNIT ( 'INCH', #184 ) LENGTH_UNIT ( ) NAMED_UNIT ( #1 ) );
#30 =( LENGTH_UNIT ( ) NAMED_UNIT ( * ) SI_UNIT ( $, .METRE. ) );
#31 = PRESENTATION_STYLE_ASSIGNMENT (( #32 ) ) ;
#32 = SURFACE_STYLE_USAGE ( .BOTH. , #33 ) ;
#33 = SURFACE_SIDE_STYLE ('',( #34 ) ) ;
#34 = SURFACE_STYLE_FILL_AREA ( #35 ) ;
#35 = FILL_AREA_STYLE ('',( #36 ) ) ;
#36 = FILL_AREA_STYLE_COLOUR ( '', #197 ) ;
#37 = APPLICATION_PROTOCOL_DEFINITION ( 'draft international standard', 'automotive_design', 1998, #156 ) ;
#38 =( NAMED_UNIT ( * ) SI_UNIT ( $, .STERADIAN. ) SOLID_ANGLE_UNIT ( ) );
#39 =( NAMED_UNIT ( * ) PLANE_ANGLE_UNIT ( ) SI_UNIT ( $, .RADIAN. ) );
#40 =( CONVERSION_BASED_UNIT ( 'INCH', #178 ) LENGTH_UNIT ( ) NAMED_UNIT ( #2 ) );
#41 =( LENGTH_UNIT ( ) NAMED_UNIT ( * ) SI_UNIT ( $, .METRE. ) );
#42 = DIRECTION ( 'NONE',  ( -1.000000000000000000, -0.0000000000000000000, -0.0000000000000000000 ) ) ;
#43 = CARTESIAN_POINT ( 'NONE',  ( 0.0000000000000000000, 0.0000000000000000000, -1.500000000000000200 ) ) ;
#44 = LINE ( 'NONE', #43, #180 ) ;
#45 = DIRECTION ( 'NONE',  ( 0.0000000000000000000, 0.0000000000000000000, -1.000000000000000000 ) ) ;
#46 = DIRECTION ( 'NONE',  ( 0.0000000000000000000, -1.000000000000000000, -0.0000000000000000000 ) ) ;
#47 = CARTESIAN_POINT ( 'NONE',  ( 0.0000000000000000000, 0.0000000000000000000, 0.0000000000000000000 ) ) ;
#48 = PLANE ( 'NONE',  #179 ) ;
#49 = DIRECTION ( 'NONE',  ( 0.0000000000000000000, 0.0000000000000000000, -1.000000000000000000 ) ) ;
#50 = DIRECTION ( 'NONE',  ( 0.0000000000000000000, -1.000000000000000000, -0.0000000000000000000 ) ) ;
#51 = CARTESIAN_POINT ( 'NONE',  ( 0.0000000000000000000, 0.09375000000000001400, 0.0000000000000000000 ) ) ;
#52 = PLANE ( 'NONE',  #177 ) ;
#53 = DIRECTION ( 'NONE',  ( 0.0000000000000000000, 0.0000000000000000000, -1.000000000000000000 ) ) ;
#54 = DIRECTION ( 'NONE',  ( 1.000000000000000000, -0.0000000000000000000, 0.0000000000000000000 ) ) ;
#55 = CARTESIAN_POINT ( 'NONE',  ( 0.0000000000000000000, 0.09375000000000001400, 0.0000000000000000000 ) ) ;
#56 = DIRECTION ( 'NONE',  ( -0.0000000000000000000, -1.000000000000000000, -0.0000000000000000000 ) ) ;
#57 = CARTESIAN_POINT ( 'NONE',  ( 0.0000000000000000000, 0.09375000000000001400, -1.500000000000000200 ) ) ;
#58 = LINE ( 'NONE', #57, #174 ) ;
#59 = DIRECTION ( 'NONE',  ( -0.0000000000000000000, -0.0000000000000000000, 1.000000000000000000 ) ) ;
#60 = CARTESIAN_POINT ( 'NONE',  ( 0.0000000000000000000, 0.0000000000000000000, 0.0000000000000000000 ) ) ;
#61 = LINE ( 'NONE', #60, #172 ) ;
#62 = DIRECTION ( 'NONE',  ( -0.0000000000000000000, -1.000000000000000000, -0.0000000000000000000 ) ) ;
#63 = CARTESIAN_POINT ( 'NONE',  ( 0.0000000000000000000, 0.09375000000000001400, 0.0000000000000000000 ) ) ;
#64 = LINE ( 'NONE', #63, #171 ) ;
#65 = DIRECTION ( 'NONE',  ( -9.106159978880878600E-017, -0.0000000000000000000, -1.000000000000000000 ) ) ;
#66 = CARTESIAN_POINT ( 'NONE',  ( 0.9999999999999998900, 0.0000000000000000000, -1.500000000000000200 ) ) ;
#67 = LINE ( 'NONE', #66, #170 ) ;
#68 = DIRECTION ( 'NONE',  ( -0.0000000000000000000, -0.0000000000000000000, 1.000000000000000000 ) ) ;
#69 = CARTESIAN_POINT ( 'NONE',  ( 0.0000000000000000000, 0.09375000000000001400, 0.0000000000000000000 ) ) ;
#70 = LINE ( 'NONE', #69, #169 ) ;
#71 = DIRECTION ( 'NONE',  ( -9.106159978880878600E-017, -0.0000000000000000000, -1.000000000000000000 ) ) ;
#72 = CARTESIAN_POINT ( 'NONE',  ( 0.9999999999999998900, 0.09375000000000001400, -1.500000000000000200 ) ) ;
#73 = LINE ( 'NONE', #72, #168 ) ;
#74 = DIRECTION ( 'NONE',  ( -0.0000000000000000000, -1.000000000000000000, -0.0000000000000000000 ) ) ;
#75 = CARTESIAN_POINT ( 'NONE',  ( 0.9999999999999998900, 0.09375000000000001400, -1.500000000000000200 ) ) ;
#76 = LINE ( 'NONE', #75, #167 ) ;
#77 = DIRECTION ( 'NONE',  ( 1.000000000000000000, -0.0000000000000000000, -6.123233995736766000E-017 ) ) ;
#78 = CARTESIAN_POINT ( 'NONE',  ( 1.000000000000000000, 0.09375000000000001400, -6.123233995736766000E-017 ) ) ;
#79 = LINE ( 'NONE', #78, #162 ) ;
#80 = DIRECTION ( 'NONE',  ( -1.000000000000000000, -0.0000000000000000000, -0.0000000000000000000 ) ) ;
#81 = CARTESIAN_POINT ( 'NONE',  ( 0.0000000000000000000, 0.09375000000000001400, -1.500000000000000200 ) ) ;
#82 = LINE ( 'NONE', #81, #166 ) ;
#83 = PLANE ( 'NONE',  #175 ) ;
#84 = DIRECTION ( 'NONE',  ( -0.0000000000000000000, -1.000000000000000000, -0.0000000000000000000 ) ) ;
#85 = CARTESIAN_POINT ( 'NONE',  ( 1.000000000000000000, 0.09375000000000001400, -6.123233995736766000E-017 ) ) ;
#86 = LINE ( 'NONE', #85, #165 ) ;
#87 = DIRECTION ( 'NONE',  ( -1.000000000000000000, 0.0000000000000000000, 6.123233995736767300E-017 ) ) ;
#88 = DIRECTION ( 'NONE',  ( -6.123233995736767300E-017, 0.0000000000000000000, -1.000000000000000000 ) ) ;
#89 = CARTESIAN_POINT ( 'NONE',  ( 1.000000000000000000, 0.09375000000000001400, -6.123233995736766000E-017 ) ) ;
#90 = PLANE ( 'NONE',  #5 ) ;
#91 = DIRECTION ( 'NONE',  ( 1.000000000000000000, -0.0000000000000000000, -6.123233995736766000E-017 ) ) ;
#92 = CARTESIAN_POINT ( 'NONE',  ( 1.000000000000000000, 0.0000000000000000000, -6.123233995736766000E-017 ) ) ;
#93 = LINE ( 'NONE', #92, #164 ) ;
#94 =( NAMED_UNIT ( * ) SI_UNIT ( $, .STERADIAN. ) SOLID_ANGLE_UNIT ( ) );
#95 =( NAMED_UNIT ( * ) PLANE_ANGLE_UNIT ( ) SI_UNIT ( $, .RADIAN. ) );
#96 =( CONVERSION_BASED_UNIT ( 'INCH', #7 ) LENGTH_UNIT ( ) NAMED_UNIT ( #4 ) );
#97 =( LENGTH_UNIT ( ) NAMED_UNIT ( * ) SI_UNIT ( $, .METRE. ) );
#98 = PRESENTATION_STYLE_ASSIGNMENT (( #99 ) ) ;
#99 = SURFACE_STYLE_USAGE ( .BOTH. , #100 ) ;
#100 = SURFACE_SIDE_STYLE ('',( #101 ) ) ;
#101 = SURFACE_STYLE_FILL_AREA ( #102 ) ;
#102 = FILL_AREA_STYLE ('',( #103 ) ) ;
#103 = FILL_AREA_STYLE_COLOUR ( '', #211 ) ;
#104 = DIRECTION ( 'NONE',  ( 1.000000000000000000, 0.0000000000000000000, -0.0000000000000000000 ) ) ;
#105 = DIRECTION ( 'NONE',  ( 0.0000000000000000000, 0.0000000000000000000, 1.000000000000000000 ) ) ;
#106 = CARTESIAN_POINT ( 'NONE',  ( 0.0000000000000000000, 0.09375000000000001400, -1.500000000000000200 ) ) ;
#107 = PLANE ( 'NONE',  #10 ) ;
#108 = DIRECTION ( 'NONE',  ( 9.106159978880877400E-017, 0.0000000000000000000, 1.000000000000000000 ) ) ;
#109 = DIRECTION ( 'NONE',  ( -1.000000000000000000, 0.0000000000000000000, 9.106159978880877400E-017 ) ) ;
#110 = CARTESIAN_POINT ( 'NONE',  ( 0.9999999999999998900, 0.09375000000000001400, -1.500000000000000200 ) ) ;
#111 = PLANE ( 'NONE',  #15 ) ;
#112 = CARTESIAN_POINT ( 'NONE',  ( 0.0000000000000000000, 0.0000000000000000000, 0.0000000000000000000 ) ) ;
#113 = CARTESIAN_POINT ( 'NONE',  ( 1.000000000000000000, 0.0000000000000000000, -6.123233995736766000E-017 ) ) ;
#114 = CARTESIAN_POINT ( 'NONE',  ( 1.000000000000000000, 0.09375000000000001400, -6.123233995736766000E-017 ) ) ;
#115 = CARTESIAN_POINT ( 'NONE',  ( 0.0000000000000000000, 0.09375000000000001400, 0.0000000000000000000 ) ) ;
#116 = CARTESIAN_POINT ( 'NONE',  ( 0.9999999999999998900, 0.0000000000000000000, -1.500000000000000200 ) ) ;
#117 = CARTESIAN_POINT ( 'NONE',  ( 0.9999999999999998900, 0.09375000000000001400, -1.500000000000000200 ) ) ;
#118 = CARTESIAN_POINT ( 'NONE',  ( 0.0000000000000000000, 0.0000000000000000000, -1.500000000000000200 ) ) ;
#119 = CARTESIAN_POINT ( 'NONE',  ( 0.0000000000000000000, 0.09375000000000001400, -1.500000000000000200 ) ) ;
#120 = ORIENTED_EDGE ( 'NONE', *, *, #204, .F. ) ;
#121 = ORIENTED_EDGE ( 'NONE', *, *, #202, .T. ) ;
#122 = ORIENTED_EDGE ( 'NONE', *, *, #203, .T. ) ;
#123 = ORIENTED_EDGE ( 'NONE', *, *, #204, .T. ) ;
#124 = ORIENTED_EDGE ( 'NONE', *, *, #195, .F. ) ;
#125 = ORIENTED_EDGE ( 'NONE', *, *, #199, .F. ) ;
#126 = ORIENTED_EDGE ( 'NONE', *, *, #193, .T. ) ;
#127 = ORIENTED_EDGE ( 'NONE', *, *, #195, .T. ) ;
#128 = ORIENTED_EDGE ( 'NONE', *, *, #201, .F. ) ;
#129 = ORIENTED_EDGE ( 'NONE', *, *, #200, .F. ) ;
#130 = ORIENTED_EDGE ( 'NONE', *, *, #210, .T. ) ;
#131 = ORIENTED_EDGE ( 'NONE', *, *, #206, .F. ) ;
#132 = ORIENTED_EDGE ( 'NONE', *, *, #196, .F. ) ;
#133 = ORIENTED_EDGE ( 'NONE', *, *, #200, .T. ) ;
#134 = ORIENTED_EDGE ( 'NONE', *, *, #202, .F. ) ;
#135 = ORIENTED_EDGE ( 'NONE', *, *, #205, .T. ) ;
#136 = EDGE_LOOP ( 'NONE', ( #135, #120, #134, #152 ) ) ;
#137 = EDGE_LOOP ( 'NONE', ( #126, #124, #125, #123 ) ) ;
#138 = EDGE_LOOP ( 'NONE', ( #130, #131, #132, #133 ) ) ;
#139 = EDGE_LOOP ( 'NONE', ( #122, #129, #128, #127 ) ) ;
#140 = VERTEX_POINT ( 'NONE', #119 ) ;
#141 = VERTEX_POINT ( 'NONE', #118 ) ;
#142 = VERTEX_POINT ( 'NONE', #117 ) ;
#143 = VERTEX_POINT ( 'NONE', #116 ) ;
#144 = VERTEX_POINT ( 'NONE', #115 ) ;
#145 = VERTEX_POINT ( 'NONE', #114 ) ;
#146 = VERTEX_POINT ( 'NONE', #113 ) ;
#147 = VERTEX_POINT ( 'NONE', #112 ) ;
#148 = EDGE_LOOP ( 'NONE', ( #20, #19, #150, #121 ) ) ;
#149 = EDGE_LOOP ( 'NONE', ( #154, #155, #151, #153 ) ) ;
#150 = ORIENTED_EDGE ( 'NONE', *, *, #196, .T. ) ;
#151 = ORIENTED_EDGE ( 'NONE', *, *, #210, .F. ) ;
#152 = ORIENTED_EDGE ( 'NONE', *, *, #206, .T. ) ;
#153 = ORIENTED_EDGE ( 'NONE', *, *, #203, .F. ) ;
#154 = ORIENTED_EDGE ( 'NONE', *, *, #193, .F. ) ;
#155 = ORIENTED_EDGE ( 'NONE', *, *, #205, .F. ) ;
#156 = APPLICATION_CONTEXT ( 'automotive_design' ) ;
#157 = APPLICATION_CONTEXT ( 'automotive_design' ) ;
#158 = UNCERTAINTY_MEASURE_WITH_UNIT (LENGTH_MEASURE( 1.000000000000000100E-005 ), #40, 'distance_accuracy_value', 'NONE');
#159 = ADVANCED_BREP_SHAPE_REPRESENTATION ( 'P094HL', ( #190, #185 ), #16 ) ;
#160 = UNCERTAINTY_MEASURE_WITH_UNIT (LENGTH_MEASURE( 1.000000000000000100E-005 ), #29, 'distance_accuracy_value', 'NONE');
#161 = UNCERTAINTY_MEASURE_WITH_UNIT (LENGTH_MEASURE( 1.000000000000000100E-005 ), #96, 'distance_accuracy_value', 'NONE');
#162 = VECTOR ( 'NONE', #77, 39.37007874015748100 ) ;
#163 = FACE_OUTER_BOUND ( 'NONE', #136, .T. ) ;
#164 = VECTOR ( 'NONE', #91, 39.37007874015748100 ) ;
#165 = VECTOR ( 'NONE', #84, 39.37007874015748100 ) ;
#166 = VECTOR ( 'NONE', #80, 39.37007874015748100 ) ;
#167 = VECTOR ( 'NONE', #74, 39.37007874015748100 ) ;
#168 = VECTOR ( 'NONE', #71, 39.37007874015748100 ) ;
#169 = VECTOR ( 'NONE', #68, 39.37007874015748100 ) ;
#170 = VECTOR ( 'NONE', #65, 39.37007874015748100 ) ;
#171 = VECTOR ( 'NONE', #62, 39.37007874015748100 ) ;
#172 = VECTOR ( 'NONE', #59, 39.37007874015748100 ) ;
#173 = FACE_OUTER_BOUND ( 'NONE', #148, .T. ) ;
#174 = VECTOR ( 'NONE', #56, 39.37007874015748100 ) ;
#175 = AXIS2_PLACEMENT_3D ( 'NONE', #55, #54, #53 ) ;
#176 = FACE_OUTER_BOUND ( 'NONE', #149, .T. ) ;
#177 = AXIS2_PLACEMENT_3D ( 'NONE', #51, #50, #49 ) ;
#178 = LENGTH_MEASURE_WITH_UNIT ( LENGTH_MEASURE( 0.02539999999999999900 ), #41 );
#179 = AXIS2_PLACEMENT_3D ( 'NONE', #47, #46, #45 ) ;
#180 = VECTOR ( 'NONE', #42, 39.37007874015748100 ) ;
#181 = STYLED_ITEM ( 'NONE', ( #31 ), #159 ) ;
#182 = PRESENTATION_LAYER_ASSIGNMENT (  '', '', ( #181 ) ) ;
#183 = MECHANICAL_DESIGN_GEOMETRIC_PRESENTATION_REPRESENTATION (  '', ( #181 ), #17 ) ;
#184 = LENGTH_MEASURE_WITH_UNIT ( LENGTH_MEASURE( 0.02539999999999999900 ), #30 );
#185 = AXIS2_PLACEMENT_3D ( 'NONE', #26, #25, #24 ) ;
#186 = PRODUCT_DEFINITION_FORMATION_WITH_SPECIFIED_SOURCE ( 'ANY', '', #3, .NOT_KNOWN. ) ;
#187 = ADVANCED_FACE ( 'NONE', ( #13 ), #111, .F. ) ;
#188 = PRODUCT_DEFINITION ( 'UNKNOWN', '', #186, #191 ) ;
#189 = ADVANCED_FACE ( 'NONE', ( #12 ), #107, .F. ) ;
#190 = MANIFOLD_SOLID_BREP ( 'Boss-Extrude1', #14 ) ;
#191 = PRODUCT_DEFINITION_CONTEXT ( 'detailed design', #157, 'design' ) ;
#192 = PRODUCT_DEFINITION_SHAPE ( 'NONE', 'NONE',  #188 ) ;
#193 = EDGE_CURVE ( 'NONE', #147, #146, #93, .T. ) ;
#194 = ADVANCED_FACE ( 'NONE', ( #6 ), #90, .F. ) ;
#195 = EDGE_CURVE ( 'NONE', #145, #146, #86, .T. ) ;
#196 = EDGE_CURVE ( 'NONE', #142, #140, #82, .T. ) ;
#197 = COLOUR_RGB ( '',0.5686274509803921400, 0.5686274509803921400, 0.5882352941176470800 ) ;
#198 = PRODUCT_RELATED_PRODUCT_CATEGORY ( 'part', '', ( #3 ) ) ;
#199 = EDGE_CURVE ( 'NONE', #144, #145, #79, .T. ) ;
#200 = EDGE_CURVE ( 'NONE', #142, #143, #76, .T. ) ;
#201 = EDGE_CURVE ( 'NONE', #145, #142, #73, .T. ) ;
#202 = EDGE_CURVE ( 'NONE', #140, #144, #70, .T. ) ;
#203 = EDGE_CURVE ( 'NONE', #146, #143, #67, .T. ) ;
#204 = EDGE_CURVE ( 'NONE', #144, #147, #64, .T. ) ;
#205 = EDGE_CURVE ( 'NONE', #141, #147, #61, .T. ) ;
#206 = EDGE_CURVE ( 'NONE', #140, #141, #58, .T. ) ;
#207 = ADVANCED_FACE ( 'NONE', ( #163 ), #83, .F. ) ;
#208 = ADVANCED_FACE ( 'NONE', ( #173 ), #52, .F. ) ;
#209 = ADVANCED_FACE ( 'NONE', ( #176 ), #48, .T. ) ;
#210 = EDGE_CURVE ( 'NONE', #143, #141, #44, .T. ) ;
#211 = COLOUR_RGB ( '',0.5686274509803921400, 0.5686274509803921400, 0.5882352941176470800 ) ;
ENDSEC;
END-ISO-10303-21;
