ISO-10303-21;
HEADER;
FILE_DESCRIPTION (( 'STEP AP214' ),
    '1' );
FILE_NAME ('P125DH.step',
    '2012-04-20T21:00:52',
    ( '' ),
    ( '' ),
    'SwSTEP 2.0',
    'SolidWorks 2012',
    '' );
FILE_SCHEMA (( 'AUTOMOTIVE_DESIGN' ));
ENDSEC;

DATA;
#1 = DIMENSIONAL_EXPONENTS ( 1.000000000000000000, 0.0000000000000000000, 0.0000000000000000000, 0.0000000000000000000, 0.0000000000000000000, 0.0000000000000000000, 0.0000000000000000000 ) ;
#2 = DIMENSIONAL_EXPONENTS ( 1.000000000000000000, 0.0000000000000000000, 0.0000000000000000000, 0.0000000000000000000, 0.0000000000000000000, 0.0000000000000000000, 0.0000000000000000000 ) ;
#3 = DIMENSIONAL_EXPONENTS ( 1.000000000000000000, 0.0000000000000000000, 0.0000000000000000000, 0.0000000000000000000, 0.0000000000000000000, 0.0000000000000000000, 0.0000000000000000000 ) ;
#4 = PRODUCT ( 'P125DH', 'P125DH', '', ( #25 ) ) ;
#5 = APPLICATION_CONTEXT ( 'automotive_design' ) ;
#6 = APPLICATION_CONTEXT ( 'automotive_design' ) ;
#7 = VECTOR ( 'NONE', #103, 39.37007874015748100 ) ;
#8 = FACE_OUTER_BOUND ( 'NONE', #132, .T. ) ;
#9 = CLOSED_SHELL ( 'NONE', ( #182, #180, #179, #170, #181, #186 ) ) ;
#10 = AXIS2_PLACEMENT_3D ( 'NONE', #112, #111, #110 ) ;
#11 = VECTOR ( 'NONE', #97, 39.37007874015748100 ) ;
#12 = VECTOR ( 'NONE', #107, 39.37007874015748100 ) ;
#13 = FACE_OUTER_BOUND ( 'NONE', #130, .T. ) ;
#14 = VECTOR ( 'NONE', #100, 39.37007874015748100 ) ;
#15 =( GEOMETRIC_REPRESENTATION_CONTEXT ( 3 ) GLOBAL_UNCERTAINTY_ASSIGNED_CONTEXT ( ( #20 ) ) GLOBAL_UNIT_ASSIGNED_CONTEXT ( ( #47, #46, #45 ) ) REPRESENTATION_CONTEXT ( 'NONE', 'WORKASPACE' ) );
#16 =( GEOMETRIC_REPRESENTATION_CONTEXT ( 3 ) GLOBAL_UNCERTAINTY_ASSIGNED_CONTEXT ( ( #18 ) ) GLOBAL_UNIT_ASSIGNED_CONTEXT ( ( #43, #42, #41 ) ) REPRESENTATION_CONTEXT ( 'NONE', 'WORKASPACE' ) );
#17 =( GEOMETRIC_REPRESENTATION_CONTEXT ( 3 ) GLOBAL_UNCERTAINTY_ASSIGNED_CONTEXT ( ( #21 ) ) GLOBAL_UNIT_ASSIGNED_CONTEXT ( ( #31, #30, #28 ) ) REPRESENTATION_CONTEXT ( 'NONE', 'WORKASPACE' ) );
#18 = UNCERTAINTY_MEASURE_WITH_UNIT (LENGTH_MEASURE( 1.000000000000000100E-005 ), #43, 'distance_accuracy_value', 'NONE');
#19 = ADVANCED_BREP_SHAPE_REPRESENTATION ( 'P125DH', ( #193, #198 ), #16 ) ;
#20 = UNCERTAINTY_MEASURE_WITH_UNIT (LENGTH_MEASURE( 1.000000000000000100E-005 ), #47, 'distance_accuracy_value', 'NONE');
#21 = UNCERTAINTY_MEASURE_WITH_UNIT (LENGTH_MEASURE( 1.000000000000000100E-005 ), #31, 'distance_accuracy_value', 'NONE');
#22 = CARTESIAN_POINT ( 'NONE',  ( 0.0000000000000000000, 0.0000000000000000000, 0.0000000000000000000 ) ) ;
#23 = DIRECTION ( 'NONE',  ( 0.0000000000000000000, 0.0000000000000000000, 1.000000000000000000 ) ) ;
#24 = APPLICATION_PROTOCOL_DEFINITION ( 'draft international standard', 'automotive_design', 1998, #5 ) ;
#25 = PRODUCT_CONTEXT ( 'NONE', #6, 'mechanical' ) ;
#26 = DIRECTION ( 'NONE',  ( 1.000000000000000000, 0.0000000000000000000, 0.0000000000000000000 ) ) ;
#27 = SHAPE_DEFINITION_REPRESENTATION ( #191, #19 ) ;
#28 =( NAMED_UNIT ( * ) SI_UNIT ( $, .STERADIAN. ) SOLID_ANGLE_UNIT ( ) );
#29 = LINE ( 'NONE', #73, #165 ) ;
#30 =( NAMED_UNIT ( * ) PLANE_ANGLE_UNIT ( ) SI_UNIT ( $, .RADIAN. ) );
#31 =( CONVERSION_BASED_UNIT ( 'INCH', #196 ) LENGTH_UNIT ( ) NAMED_UNIT ( #3 ) );
#32 =( LENGTH_UNIT ( ) NAMED_UNIT ( * ) SI_UNIT ( $, .METRE. ) );
#33 = PRESENTATION_STYLE_ASSIGNMENT (( #34 ) ) ;
#34 = SURFACE_STYLE_USAGE ( .BOTH. , #35 ) ;
#35 = SURFACE_SIDE_STYLE ('',( #36 ) ) ;
#36 = SURFACE_STYLE_FILL_AREA ( #37 ) ;
#37 = FILL_AREA_STYLE ('',( #38 ) ) ;
#38 = FILL_AREA_STYLE_COLOUR ( '', #190 ) ;
#39 = APPLICATION_PROTOCOL_DEFINITION ( 'draft international standard', 'automotive_design', 1998, #6 ) ;
#40 = EDGE_LOOP ( 'NONE', ( #147, #141, #146, #129 ) ) ;
#41 =( NAMED_UNIT ( * ) SI_UNIT ( $, .STERADIAN. ) SOLID_ANGLE_UNIT ( ) );
#42 =( NAMED_UNIT ( * ) PLANE_ANGLE_UNIT ( ) SI_UNIT ( $, .RADIAN. ) );
#43 =( CONVERSION_BASED_UNIT ( 'INCH', #197 ) LENGTH_UNIT ( ) NAMED_UNIT ( #2 ) );
#44 =( LENGTH_UNIT ( ) NAMED_UNIT ( * ) SI_UNIT ( $, .METRE. ) );
#45 =( NAMED_UNIT ( * ) SI_UNIT ( $, .STERADIAN. ) SOLID_ANGLE_UNIT ( ) );
#46 =( NAMED_UNIT ( * ) PLANE_ANGLE_UNIT ( ) SI_UNIT ( $, .RADIAN. ) );
#47 =( CONVERSION_BASED_UNIT ( 'INCH', #194 ) LENGTH_UNIT ( ) NAMED_UNIT ( #1 ) );
#48 =( LENGTH_UNIT ( ) NAMED_UNIT ( * ) SI_UNIT ( $, .METRE. ) );
#49 = PRESENTATION_STYLE_ASSIGNMENT (( #50 ) ) ;
#50 = SURFACE_STYLE_USAGE ( .BOTH. , #51 ) ;
#51 = SURFACE_SIDE_STYLE ('',( #52 ) ) ;
#52 = SURFACE_STYLE_FILL_AREA ( #53 ) ;
#53 = FILL_AREA_STYLE ('',( #54 ) ) ;
#54 = FILL_AREA_STYLE_COLOUR ( '', #171 ) ;
#55 = DIRECTION ( 'NONE',  ( -0.0000000000000000000, -1.000000000000000000, -0.0000000000000000000 ) ) ;
#56 = CARTESIAN_POINT ( 'NONE',  ( 0.5000000000000000000, 0.1250000000000000000, -1.530808498934190900E-017 ) ) ;
#57 = LINE ( 'NONE', #56, #203 ) ;
#58 = DIRECTION ( 'NONE',  ( -0.0000000000000000000, -0.0000000000000000000, 1.000000000000000000 ) ) ;
#59 = CARTESIAN_POINT ( 'NONE',  ( 0.0000000000000000000, 0.0000000000000000000, 0.0000000000000000000 ) ) ;
#60 = LINE ( 'NONE', #59, #156 ) ;
#61 = DIRECTION ( 'NONE',  ( -1.000000000000000000, -0.0000000000000000000, -0.0000000000000000000 ) ) ;
#62 = CARTESIAN_POINT ( 'NONE',  ( 0.0000000000000000000, 0.1250000000000000000, -1.000000000000000000 ) ) ;
#63 = LINE ( 'NONE', #62, #157 ) ;
#64 = DIRECTION ( 'NONE',  ( 0.0000000000000000000, 0.0000000000000000000, -1.000000000000000000 ) ) ;
#65 = DIRECTION ( 'NONE',  ( 0.0000000000000000000, -1.000000000000000000, -0.0000000000000000000 ) ) ;
#66 = CARTESIAN_POINT ( 'NONE',  ( 0.0000000000000000000, 0.0000000000000000000, 0.0000000000000000000 ) ) ;
#67 = DIRECTION ( 'NONE',  ( -1.000000000000000000, -0.0000000000000000000, -0.0000000000000000000 ) ) ;
#68 = CARTESIAN_POINT ( 'NONE',  ( 0.0000000000000000000, 0.0000000000000000000, -1.000000000000000000 ) ) ;
#69 = LINE ( 'NONE', #68, #160 ) ;
#70 = DIRECTION ( 'NONE',  ( -0.0000000000000000000, -1.000000000000000000, -0.0000000000000000000 ) ) ;
#71 = CARTESIAN_POINT ( 'NONE',  ( 0.0000000000000000000, 0.1250000000000000000, -1.000000000000000000 ) ) ;
#72 = LINE ( 'NONE', #71, #164 ) ;
#73 = CARTESIAN_POINT ( 'NONE',  ( 0.4999999999999997800, 0.1250000000000000000, -1.000000000000000000 ) ) ;
#74 = DIRECTION ( 'NONE',  ( -2.048885995248197700E-016, -0.0000000000000000000, -1.000000000000000000 ) ) ;
#75 = PLANE ( 'NONE',  #159 ) ;
#76 = DIRECTION ( 'NONE',  ( -3.061616997868381800E-017, 0.0000000000000000000, -1.000000000000000000 ) ) ;
#77 = DIRECTION ( 'NONE',  ( -1.000000000000000000, 0.0000000000000000000, 3.061616997868381800E-017 ) ) ;
#78 = DIRECTION ( 'NONE',  ( 0.0000000000000000000, 0.0000000000000000000, -1.000000000000000000 ) ) ;
#79 = PLANE ( 'NONE',  #166 ) ;
#80 = CARTESIAN_POINT ( 'NONE',  ( 0.5000000000000000000, 0.1250000000000000000, -1.530808498934190900E-017 ) ) ;
#81 = DIRECTION ( 'NONE',  ( 0.0000000000000000000, -1.000000000000000000, -0.0000000000000000000 ) ) ;
#82 = CARTESIAN_POINT ( 'NONE',  ( 0.0000000000000000000, 0.1250000000000000000, 0.0000000000000000000 ) ) ;
#83 = PLANE ( 'NONE',  #167 ) ;
#84 = DIRECTION ( 'NONE',  ( 2.048885995248197700E-016, 0.0000000000000000000, 1.000000000000000000 ) ) ;
#85 = DIRECTION ( 'NONE',  ( -1.000000000000000000, 0.0000000000000000000, 2.048885995248197700E-016 ) ) ;
#86 = CARTESIAN_POINT ( 'NONE',  ( 0.4999999999999997800, 0.1250000000000000000, -1.000000000000000000 ) ) ;
#87 = PLANE ( 'NONE',  #162 ) ;
#88 = DIRECTION ( 'NONE',  ( 1.000000000000000000, 0.0000000000000000000, -0.0000000000000000000 ) ) ;
#89 = DIRECTION ( 'NONE',  ( 0.0000000000000000000, 0.0000000000000000000, 1.000000000000000000 ) ) ;
#90 = CARTESIAN_POINT ( 'NONE',  ( 0.0000000000000000000, 0.1250000000000000000, -1.000000000000000000 ) ) ;
#91 = DIRECTION ( 'NONE',  ( -2.048885995248197700E-016, -0.0000000000000000000, -1.000000000000000000 ) ) ;
#92 = CARTESIAN_POINT ( 'NONE',  ( 0.4999999999999997800, 0.0000000000000000000, -1.000000000000000000 ) ) ;
#93 = LINE ( 'NONE', #92, #163 ) ;
#94 = DIRECTION ( 'NONE',  ( -0.0000000000000000000, -1.000000000000000000, -0.0000000000000000000 ) ) ;
#95 = CARTESIAN_POINT ( 'NONE',  ( 0.4999999999999997800, 0.1250000000000000000, -1.000000000000000000 ) ) ;
#96 = LINE ( 'NONE', #95, #151 ) ;
#97 = DIRECTION ( 'NONE',  ( -0.0000000000000000000, -1.000000000000000000, -0.0000000000000000000 ) ) ;
#98 = CARTESIAN_POINT ( 'NONE',  ( 0.0000000000000000000, 0.1250000000000000000, 0.0000000000000000000 ) ) ;
#99 = LINE ( 'NONE', #98, #11 ) ;
#100 = DIRECTION ( 'NONE',  ( -0.0000000000000000000, -0.0000000000000000000, 1.000000000000000000 ) ) ;
#101 = CARTESIAN_POINT ( 'NONE',  ( 0.0000000000000000000, 0.1250000000000000000, 0.0000000000000000000 ) ) ;
#102 = LINE ( 'NONE', #101, #14 ) ;
#103 = DIRECTION ( 'NONE',  ( 1.000000000000000000, -0.0000000000000000000, -3.061616997868381800E-017 ) ) ;
#104 = CARTESIAN_POINT ( 'NONE',  ( 0.5000000000000000000, 0.1250000000000000000, -1.530808498934190900E-017 ) ) ;
#105 = LINE ( 'NONE', #104, #7 ) ;
#106 = PLANE ( 'NONE',  #154 ) ;
#107 = DIRECTION ( 'NONE',  ( 1.000000000000000000, -0.0000000000000000000, -3.061616997868381800E-017 ) ) ;
#108 = CARTESIAN_POINT ( 'NONE',  ( 0.5000000000000000000, 0.0000000000000000000, -1.530808498934190900E-017 ) ) ;
#109 = LINE ( 'NONE', #108, #12 ) ;
#110 = DIRECTION ( 'NONE',  ( 0.0000000000000000000, 0.0000000000000000000, -1.000000000000000000 ) ) ;
#111 = DIRECTION ( 'NONE',  ( 1.000000000000000000, -0.0000000000000000000, 0.0000000000000000000 ) ) ;
#112 = CARTESIAN_POINT ( 'NONE',  ( 0.0000000000000000000, 0.1250000000000000000, 0.0000000000000000000 ) ) ;
#113 = PLANE ( 'NONE',  #10 ) ;
#114 = CARTESIAN_POINT ( 'NONE',  ( 0.0000000000000000000, 0.1250000000000000000, -1.000000000000000000 ) ) ;
#115 = CARTESIAN_POINT ( 'NONE',  ( 0.0000000000000000000, 0.0000000000000000000, -1.000000000000000000 ) ) ;
#116 = CARTESIAN_POINT ( 'NONE',  ( 0.4999999999999997800, 0.1250000000000000000, -1.000000000000000000 ) ) ;
#117 = CARTESIAN_POINT ( 'NONE',  ( 0.4999999999999997800, 0.0000000000000000000, -1.000000000000000000 ) ) ;
#118 = CARTESIAN_POINT ( 'NONE',  ( 0.0000000000000000000, 0.1250000000000000000, 0.0000000000000000000 ) ) ;
#119 = CARTESIAN_POINT ( 'NONE',  ( 0.5000000000000000000, 0.0000000000000000000, -1.530808498934190900E-017 ) ) ;
#120 = CARTESIAN_POINT ( 'NONE',  ( 0.0000000000000000000, 0.0000000000000000000, 0.0000000000000000000 ) ) ;
#121 = CARTESIAN_POINT ( 'NONE',  ( 0.5000000000000000000, 0.1250000000000000000, -1.530808498934190900E-017 ) ) ;
#122 = ORIENTED_EDGE ( 'NONE', *, *, #172, .T. ) ;
#123 = ORIENTED_EDGE ( 'NONE', *, *, #188, .T. ) ;
#124 = ORIENTED_EDGE ( 'NONE', *, *, #175, .F. ) ;
#125 = ORIENTED_EDGE ( 'NONE', *, *, #177, .T. ) ;
#126 = ORIENTED_EDGE ( 'NONE', *, *, #184, .F. ) ;
#127 = ORIENTED_EDGE ( 'NONE', *, *, #187, .F. ) ;
#128 = ORIENTED_EDGE ( 'NONE', *, *, #185, .T. ) ;
#129 = ORIENTED_EDGE ( 'NONE', *, *, #189, .T. ) ;
#130 = EDGE_LOOP ( 'NONE', ( #128, #126, #127, #125 ) ) ;
#131 = EDGE_LOOP ( 'NONE', ( #122, #145, #149, #144 ) ) ;
#132 = EDGE_LOOP ( 'NONE', ( #123, #211, #124, #209 ) ) ;
#133 = EDGE_LOOP ( 'NONE', ( #208, #207, #206, #210 ) ) ;
#134 = EDGE_LOOP ( 'NONE', ( #204, #148, #150, #205 ) ) ;
#135 = VERTEX_POINT ( 'NONE', #121 ) ;
#136 = VERTEX_POINT ( 'NONE', #120 ) ;
#137 = VERTEX_POINT ( 'NONE', #119 ) ;
#138 = VERTEX_POINT ( 'NONE', #118 ) ;
#139 = VERTEX_POINT ( 'NONE', #117 ) ;
#140 = VERTEX_POINT ( 'NONE', #116 ) ;
#141 = ORIENTED_EDGE ( 'NONE', *, *, #177, .F. ) ;
#142 = VERTEX_POINT ( 'NONE', #115 ) ;
#143 = VERTEX_POINT ( 'NONE', #114 ) ;
#144 = ORIENTED_EDGE ( 'NONE', *, *, #176, .T. ) ;
#145 = ORIENTED_EDGE ( 'NONE', *, *, #189, .F. ) ;
#146 = ORIENTED_EDGE ( 'NONE', *, *, #183, .F. ) ;
#147 = ORIENTED_EDGE ( 'NONE', *, *, #178, .T. ) ;
#148 = ORIENTED_EDGE ( 'NONE', *, *, #188, .F. ) ;
#149 = ORIENTED_EDGE ( 'NONE', *, *, #174, .F. ) ;
#150 = ORIENTED_EDGE ( 'NONE', *, *, #185, .F. ) ;
#151 = VECTOR ( 'NONE', #94, 39.37007874015748100 ) ;
#152 = PRESENTATION_LAYER_ASSIGNMENT (  '', '', ( #161 ) ) ;
#153 = FACE_OUTER_BOUND ( 'NONE', #131, .T. ) ;
#154 = AXIS2_PLACEMENT_3D ( 'NONE', #90, #89, #88 ) ;
#155 = FACE_OUTER_BOUND ( 'NONE', #134, .T. ) ;
#156 = VECTOR ( 'NONE', #58, 39.37007874015748100 ) ;
#157 = VECTOR ( 'NONE', #61, 39.37007874015748100 ) ;
#158 = FACE_OUTER_BOUND ( 'NONE', #133, .T. ) ;
#159 = AXIS2_PLACEMENT_3D ( 'NONE', #66, #65, #64 ) ;
#160 = VECTOR ( 'NONE', #67, 39.37007874015748100 ) ;
#161 = STYLED_ITEM ( 'NONE', ( #49 ), #193 ) ;
#162 = AXIS2_PLACEMENT_3D ( 'NONE', #86, #85, #84 ) ;
#163 = VECTOR ( 'NONE', #91, 39.37007874015748100 ) ;
#164 = VECTOR ( 'NONE', #70, 39.37007874015748100 ) ;
#165 = VECTOR ( 'NONE', #74, 39.37007874015748100 ) ;
#166 = AXIS2_PLACEMENT_3D ( 'NONE', #80, #76, #77 ) ;
#167 = AXIS2_PLACEMENT_3D ( 'NONE', #82, #81, #78 ) ;
#168 = FACE_OUTER_BOUND ( 'NONE', #40, .T. ) ;
#169 = PRODUCT_DEFINITION ( 'UNKNOWN', '', #200, #192 ) ;
#170 = ADVANCED_FACE ( 'NONE', ( #8 ), #113, .F. ) ;
#171 = COLOUR_RGB ( '',0.5686274509803921400, 0.5686274509803921400, 0.5882352941176470800 ) ;
#172 = EDGE_CURVE ( 'NONE', #136, #137, #109, .T. ) ;
#173 = PRODUCT_RELATED_PRODUCT_CATEGORY ( 'part', '', ( #4 ) ) ;
#174 = EDGE_CURVE ( 'NONE', #138, #135, #105, .T. ) ;
#175 = EDGE_CURVE ( 'NONE', #143, #138, #102, .T. ) ;
#176 = EDGE_CURVE ( 'NONE', #138, #136, #99, .T. ) ;
#177 = EDGE_CURVE ( 'NONE', #140, #139, #96, .T. ) ;
#178 = EDGE_CURVE ( 'NONE', #137, #139, #93, .T. ) ;
#179 = ADVANCED_FACE ( 'NONE', ( #13 ), #106, .F. ) ;
#180 = ADVANCED_FACE ( 'NONE', ( #168 ), #87, .F. ) ;
#181 = ADVANCED_FACE ( 'NONE', ( #158 ), #83, .F. ) ;
#182 = ADVANCED_FACE ( 'NONE', ( #153 ), #79, .F. ) ;
#183 = EDGE_CURVE ( 'NONE', #135, #140, #29, .T. ) ;
#184 = EDGE_CURVE ( 'NONE', #143, #142, #72, .T. ) ;
#185 = EDGE_CURVE ( 'NONE', #139, #142, #69, .T. ) ;
#186 = ADVANCED_FACE ( 'NONE', ( #155 ), #75, .T. ) ;
#187 = EDGE_CURVE ( 'NONE', #140, #143, #63, .T. ) ;
#188 = EDGE_CURVE ( 'NONE', #142, #136, #60, .T. ) ;
#189 = EDGE_CURVE ( 'NONE', #135, #137, #57, .T. ) ;
#190 = COLOUR_RGB ( '',0.5686274509803921400, 0.5686274509803921400, 0.5882352941176470800 ) ;
#191 = PRODUCT_DEFINITION_SHAPE ( 'NONE', 'NONE',  #169 ) ;
#192 = PRODUCT_DEFINITION_CONTEXT ( 'detailed design', #5, 'design' ) ;
#193 = MANIFOLD_SOLID_BREP ( 'Boss-Extrude1', #9 ) ;
#194 = LENGTH_MEASURE_WITH_UNIT ( LENGTH_MEASURE( 0.02539999999999999900 ), #48 );
#195 = MECHANICAL_DESIGN_GEOMETRIC_PRESENTATION_REPRESENTATION (  '', ( #161 ), #15 ) ;
#196 = LENGTH_MEASURE_WITH_UNIT ( LENGTH_MEASURE( 0.02539999999999999900 ), #32 );
#197 = LENGTH_MEASURE_WITH_UNIT ( LENGTH_MEASURE( 0.02539999999999999900 ), #44 );
#198 = AXIS2_PLACEMENT_3D ( 'NONE', #22, #23, #26 ) ;
#199 = PRESENTATION_LAYER_ASSIGNMENT (  '', '', ( #202 ) ) ;
#200 = PRODUCT_DEFINITION_FORMATION_WITH_SPECIFIED_SOURCE ( 'ANY', '', #4, .NOT_KNOWN. ) ;
#201 = MECHANICAL_DESIGN_GEOMETRIC_PRESENTATION_REPRESENTATION (  '', ( #202 ), #17 ) ;
#202 = STYLED_ITEM ( 'NONE', ( #33 ), #19 ) ;
#203 = VECTOR ( 'NONE', #55, 39.37007874015748100 ) ;
#204 = ORIENTED_EDGE ( 'NONE', *, *, #172, .F. ) ;
#205 = ORIENTED_EDGE ( 'NONE', *, *, #178, .F. ) ;
#206 = ORIENTED_EDGE ( 'NONE', *, *, #187, .T. ) ;
#207 = ORIENTED_EDGE ( 'NONE', *, *, #183, .T. ) ;
#208 = ORIENTED_EDGE ( 'NONE', *, *, #174, .T. ) ;
#209 = ORIENTED_EDGE ( 'NONE', *, *, #184, .T. ) ;
#210 = ORIENTED_EDGE ( 'NONE', *, *, #175, .T. ) ;
#211 = ORIENTED_EDGE ( 'NONE', *, *, #176, .F. ) ;
ENDSEC;
END-ISO-10303-21;
