ISO-10303-21;
HEADER;
FILE_DESCRIPTION (( 'STEP AP214' ),
    '1' );
FILE_NAME ('Q125F.step',
    '2012-04-20T21:03:08',
    ( '' ),
    ( '' ),
    'SwSTEP 2.0',
    'SolidWorks 2012',
    '' );
FILE_SCHEMA (( 'AUTOMOTIVE_DESIGN' ));
ENDSEC;

DATA;
#1 = VECTOR ( 'NONE', #104, 39.37007874015748100 ) ;
#2 = VECTOR ( 'NONE', #107, 39.37007874015748100 ) ;
#3 = VECTOR ( 'NONE', #110, 39.37007874015748100 ) ;
#4 = LENGTH_MEASURE_WITH_UNIT ( LENGTH_MEASURE( 0.02539999999999999900 ), #165 );
#5 = VECTOR ( 'NONE', #113, 39.37007874015748100 ) ;
#6 = VECTOR ( 'NONE', #116, 39.37007874015748100 ) ;
#7 = COLOUR_RGB ( '',0.5686274509803921400, 0.5686274509803921400, 0.5882352941176470800 ) ;
#8 = COLOUR_RGB ( '',0.5686274509803921400, 0.5686274509803921400, 0.5882352941176470800 ) ;
#9 = ADVANCED_FACE ( 'NONE', ( #199 ), #82, .F. ) ;
#10 = PRODUCT_RELATED_PRODUCT_CATEGORY ( 'part', '', ( #135 ) ) ;
#11 = PRODUCT_DEFINITION ( 'UNKNOWN', '', #211, #170 ) ;
#12 = EDGE_CURVE ( 'NONE', #42, #70, #86, .T. ) ;
#13 = EDGE_CURVE ( 'NONE', #39, #71, #90, .T. ) ;
#14 = EDGE_CURVE ( 'NONE', #69, #40, #93, .T. ) ;
#15 = EDGE_CURVE ( 'NONE', #42, #39, #99, .T. ) ;
#16 = EDGE_CURVE ( 'NONE', #41, #39, #102, .T. ) ;
#17 = EDGE_CURVE ( 'NONE', #69, #72, #105, .T. ) ;
#18 = EDGE_CURVE ( 'NONE', #40, #42, #108, .T. ) ;
#19 = EDGE_CURVE ( 'NONE', #71, #72, #111, .T. ) ;
#20 = EDGE_CURVE ( 'NONE', #70, #69, #114, .T. ) ;
#21 = EDGE_CURVE ( 'NONE', #70, #71, #117, .T. ) ;
#22 = EDGE_CURVE ( 'NONE', #40, #41, #120, .T. ) ;
#23 = EDGE_CURVE ( 'NONE', #72, #41, #123, .T. ) ;
#24 = ADVANCED_FACE ( 'NONE', ( #200 ), #89, .F. ) ;
#25 = ADVANCED_FACE ( 'NONE', ( #37 ), #129, .F. ) ;
#26 = ADVANCED_FACE ( 'NONE', ( #34 ), #139, .F. ) ;
#27 = ADVANCED_FACE ( 'NONE', ( #30 ), #143, .F. ) ;
#28 = ADVANCED_FACE ( 'NONE', ( #31 ), #147, .T. ) ;
#29 = AXIS2_PLACEMENT_3D ( 'NONE', #140, #141, #142 ) ;
#30 = FACE_OUTER_BOUND ( 'NONE', #43, .T. ) ;
#31 = FACE_OUTER_BOUND ( 'NONE', #45, .T. ) ;
#32 = AXIS2_PLACEMENT_3D ( 'NONE', #148, #149, #150 ) ;
#33 = STYLED_ITEM ( 'NONE', ( #164 ), #168 ) ;
#34 = FACE_OUTER_BOUND ( 'NONE', #47, .T. ) ;
#35 = AXIS2_PLACEMENT_3D ( 'NONE', #144, #145, #146 ) ;
#36 = AXIS2_PLACEMENT_3D ( 'NONE', #130, #131, #132 ) ;
#37 = FACE_OUTER_BOUND ( 'NONE', #46, .T. ) ;
#38 = MECHANICAL_DESIGN_GEOMETRIC_PRESENTATION_REPRESENTATION (  '', ( #33 ), #94 ) ;
#39 = VERTEX_POINT ( 'NONE', #151 ) ;
#40 = VERTEX_POINT ( 'NONE', #152 ) ;
#41 = VERTEX_POINT ( 'NONE', #153 ) ;
#42 = VERTEX_POINT ( 'NONE', #154 ) ;
#43 = EDGE_LOOP ( 'NONE', ( #74, #73, #51, #78 ) ) ;
#44 = EDGE_LOOP ( 'NONE', ( #76, #81, #80, #79 ) ) ;
#45 = EDGE_LOOP ( 'NONE', ( #77, #50, #49, #75 ) ) ;
#46 = EDGE_LOOP ( 'NONE', ( #52, #68, #66, #67 ) ) ;
#47 = EDGE_LOOP ( 'NONE', ( #64, #62, #63, #61 ) ) ;
#48 = EDGE_LOOP ( 'NONE', ( #65, #59, #60, #58 ) ) ;
#49 = ORIENTED_EDGE ( 'NONE', *, *, #16, .F. ) ;
#50 = ORIENTED_EDGE ( 'NONE', *, *, #13, .F. ) ;
#51 = ORIENTED_EDGE ( 'NONE', *, *, #12, .F. ) ;
#52 = ORIENTED_EDGE ( 'NONE', *, *, #23, .T. ) ;
#53 = PRESENTATION_LAYER_ASSIGNMENT (  '', '', ( #33 ) ) ;
#54 = VECTOR ( 'NONE', #122, 39.37007874015748100 ) ;
#55 = AXIS2_PLACEMENT_3D ( 'NONE', #126, #127, #128 ) ;
#56 = VECTOR ( 'NONE', #125, 39.37007874015748100 ) ;
#57 = VECTOR ( 'NONE', #119, 39.37007874015748100 ) ;
#58 = ORIENTED_EDGE ( 'NONE', *, *, #21, .T. ) ;
#59 = ORIENTED_EDGE ( 'NONE', *, *, #17, .F. ) ;
#60 = ORIENTED_EDGE ( 'NONE', *, *, #20, .F. ) ;
#61 = ORIENTED_EDGE ( 'NONE', *, *, #22, .T. ) ;
#62 = ORIENTED_EDGE ( 'NONE', *, *, #15, .F. ) ;
#63 = ORIENTED_EDGE ( 'NONE', *, *, #18, .F. ) ;
#64 = ORIENTED_EDGE ( 'NONE', *, *, #16, .T. ) ;
#65 = ORIENTED_EDGE ( 'NONE', *, *, #19, .T. ) ;
#66 = ORIENTED_EDGE ( 'NONE', *, *, #14, .F. ) ;
#67 = ORIENTED_EDGE ( 'NONE', *, *, #17, .T. ) ;
#68 = ORIENTED_EDGE ( 'NONE', *, *, #22, .F. ) ;
#69 = VERTEX_POINT ( 'NONE', #155 ) ;
#70 = VERTEX_POINT ( 'NONE', #156 ) ;
#71 = VERTEX_POINT ( 'NONE', #157 ) ;
#72 = VERTEX_POINT ( 'NONE', #158 ) ;
#73 = ORIENTED_EDGE ( 'NONE', *, *, #21, .F. ) ;
#74 = ORIENTED_EDGE ( 'NONE', *, *, #13, .T. ) ;
#75 = ORIENTED_EDGE ( 'NONE', *, *, #23, .F. ) ;
#76 = ORIENTED_EDGE ( 'NONE', *, *, #20, .T. ) ;
#77 = ORIENTED_EDGE ( 'NONE', *, *, #19, .F. ) ;
#78 = ORIENTED_EDGE ( 'NONE', *, *, #15, .T. ) ;
#79 = ORIENTED_EDGE ( 'NONE', *, *, #12, .T. ) ;
#80 = ORIENTED_EDGE ( 'NONE', *, *, #18, .T. ) ;
#81 = ORIENTED_EDGE ( 'NONE', *, *, #14, .T. ) ;
#82 = PLANE ( 'NONE',  #197 ) ;
#83 = CARTESIAN_POINT ( 'NONE',  ( 0.0000000000000000000, 0.1250000000000000000, 0.0000000000000000000 ) ) ;
#84 = DIRECTION ( 'NONE',  ( 0.0000000000000000000, -1.000000000000000000, -0.0000000000000000000 ) ) ;
#85 = DIRECTION ( 'NONE',  ( 0.0000000000000000000, 0.0000000000000000000, -1.000000000000000000 ) ) ;
#86 = LINE ( 'NONE', #87, #201 ) ;
#87 = CARTESIAN_POINT ( 'NONE',  ( 0.0000000000000000000, 0.1250000000000000000, 0.0000000000000000000 ) ) ;
#88 = DIRECTION ( 'NONE',  ( -0.0000000000000000000, -0.0000000000000000000, 1.000000000000000000 ) ) ;
#89 = PLANE ( 'NONE',  #55 ) ;
#90 = LINE ( 'NONE', #91, #202 ) ;
#91 = CARTESIAN_POINT ( 'NONE',  ( 0.0000000000000000000, 0.0000000000000000000, 0.0000000000000000000 ) ) ;
#92 = DIRECTION ( 'NONE',  ( -0.0000000000000000000, -0.0000000000000000000, 1.000000000000000000 ) ) ;
#93 = LINE ( 'NONE', #97, #203 ) ;
#94 =( GEOMETRIC_REPRESENTATION_CONTEXT ( 3 ) GLOBAL_UNCERTAINTY_ASSIGNED_CONTEXT ( ( #173 ) ) GLOBAL_UNIT_ASSIGNED_CONTEXT ( ( #166, #167, #184 ) ) REPRESENTATION_CONTEXT ( 'NONE', 'WORKASPACE' ) );
#95 =( GEOMETRIC_REPRESENTATION_CONTEXT ( 3 ) GLOBAL_UNCERTAINTY_ASSIGNED_CONTEXT ( ( #171 ) ) GLOBAL_UNIT_ASSIGNED_CONTEXT ( ( #186, #187, #188 ) ) REPRESENTATION_CONTEXT ( 'NONE', 'WORKASPACE' ) );
#96 =( GEOMETRIC_REPRESENTATION_CONTEXT ( 3 ) GLOBAL_UNCERTAINTY_ASSIGNED_CONTEXT ( ( #172 ) ) GLOBAL_UNIT_ASSIGNED_CONTEXT ( ( #196, #175, #176 ) ) REPRESENTATION_CONTEXT ( 'NONE', 'WORKASPACE' ) );
#97 = CARTESIAN_POINT ( 'NONE',  ( 0.7499999999999998900, 0.1250000000000000000, -0.7500000000000001100 ) ) ;
#98 = DIRECTION ( 'NONE',  ( -1.821231995776175700E-016, -0.0000000000000000000, -1.000000000000000000 ) ) ;
#99 = LINE ( 'NONE', #100, #204 ) ;
#100 = CARTESIAN_POINT ( 'NONE',  ( 0.0000000000000000000, 0.1250000000000000000, -0.7500000000000001100 ) ) ;
#101 = DIRECTION ( 'NONE',  ( -0.0000000000000000000, -1.000000000000000000, -0.0000000000000000000 ) ) ;
#102 = LINE ( 'NONE', #103, #1 ) ;
#103 = CARTESIAN_POINT ( 'NONE',  ( 0.0000000000000000000, 0.0000000000000000000, -0.7500000000000001100 ) ) ;
#104 = DIRECTION ( 'NONE',  ( -1.000000000000000000, -0.0000000000000000000, -0.0000000000000000000 ) ) ;
#105 = LINE ( 'NONE', #106, #2 ) ;
#106 = CARTESIAN_POINT ( 'NONE',  ( 0.7500000000000001100, 0.1250000000000000000, -1.530808498934193000E-017 ) ) ;
#107 = DIRECTION ( 'NONE',  ( -0.0000000000000000000, -1.000000000000000000, -0.0000000000000000000 ) ) ;
#108 = LINE ( 'NONE', #109, #3 ) ;
#109 = CARTESIAN_POINT ( 'NONE',  ( 0.0000000000000000000, 0.1250000000000000000, -0.7500000000000001100 ) ) ;
#110 = DIRECTION ( 'NONE',  ( -1.000000000000000000, -0.0000000000000000000, -0.0000000000000000000 ) ) ;
#111 = LINE ( 'NONE', #112, #5 ) ;
#112 = CARTESIAN_POINT ( 'NONE',  ( 0.7500000000000001100, 0.0000000000000000000, -1.530808498934193000E-017 ) ) ;
#113 = DIRECTION ( 'NONE',  ( 1.000000000000000000, -0.0000000000000000000, -2.041077998578924100E-017 ) ) ;
#114 = LINE ( 'NONE', #115, #6 ) ;
#115 = CARTESIAN_POINT ( 'NONE',  ( 0.7500000000000001100, 0.1250000000000000000, -1.530808498934193000E-017 ) ) ;
#116 = DIRECTION ( 'NONE',  ( 1.000000000000000000, -0.0000000000000000000, -2.041077998578924100E-017 ) ) ;
#117 = LINE ( 'NONE', #118, #57 ) ;
#118 = CARTESIAN_POINT ( 'NONE',  ( 0.0000000000000000000, 0.1250000000000000000, 0.0000000000000000000 ) ) ;
#119 = DIRECTION ( 'NONE',  ( -0.0000000000000000000, -1.000000000000000000, -0.0000000000000000000 ) ) ;
#120 = LINE ( 'NONE', #121, #54 ) ;
#121 = CARTESIAN_POINT ( 'NONE',  ( 0.7499999999999998900, 0.1250000000000000000, -0.7500000000000001100 ) ) ;
#122 = DIRECTION ( 'NONE',  ( -0.0000000000000000000, -1.000000000000000000, -0.0000000000000000000 ) ) ;
#123 = LINE ( 'NONE', #124, #56 ) ;
#124 = CARTESIAN_POINT ( 'NONE',  ( 0.7499999999999998900, 0.0000000000000000000, -0.7500000000000001100 ) ) ;
#125 = DIRECTION ( 'NONE',  ( -1.821231995776175700E-016, -0.0000000000000000000, -1.000000000000000000 ) ) ;
#126 = CARTESIAN_POINT ( 'NONE',  ( 0.7500000000000001100, 0.1250000000000000000, -1.530808498934193000E-017 ) ) ;
#127 = DIRECTION ( 'NONE',  ( -2.041077998578924400E-017, 0.0000000000000000000, -1.000000000000000000 ) ) ;
#128 = DIRECTION ( 'NONE',  ( -1.000000000000000000, 0.0000000000000000000, 2.041077998578924400E-017 ) ) ;
#129 = PLANE ( 'NONE',  #36 ) ;
#130 = CARTESIAN_POINT ( 'NONE',  ( 0.7499999999999998900, 0.1250000000000000000, -0.7500000000000001100 ) ) ;
#131 = DIRECTION ( 'NONE',  ( -1.000000000000000000, 0.0000000000000000000, 1.821231995776175500E-016 ) ) ;
#132 = DIRECTION ( 'NONE',  ( 1.821231995776175500E-016, 0.0000000000000000000, 1.000000000000000000 ) ) ;
#133 = APPLICATION_CONTEXT ( 'automotive_design' ) ;
#134 = APPLICATION_CONTEXT ( 'automotive_design' ) ;
#135 = PRODUCT ( 'Q125F', 'Q125F', '', ( #182 ) ) ;
#136 = DIMENSIONAL_EXPONENTS ( 1.000000000000000000, 0.0000000000000000000, 0.0000000000000000000, 0.0000000000000000000, 0.0000000000000000000, 0.0000000000000000000, 0.0000000000000000000 ) ;
#137 = DIMENSIONAL_EXPONENTS ( 1.000000000000000000, 0.0000000000000000000, 0.0000000000000000000, 0.0000000000000000000, 0.0000000000000000000, 0.0000000000000000000, 0.0000000000000000000 ) ;
#138 = DIMENSIONAL_EXPONENTS ( 1.000000000000000000, 0.0000000000000000000, 0.0000000000000000000, 0.0000000000000000000, 0.0000000000000000000, 0.0000000000000000000, 0.0000000000000000000 ) ;
#139 = PLANE ( 'NONE',  #29 ) ;
#140 = CARTESIAN_POINT ( 'NONE',  ( 0.0000000000000000000, 0.1250000000000000000, -0.7500000000000001100 ) ) ;
#141 = DIRECTION ( 'NONE',  ( 0.0000000000000000000, 0.0000000000000000000, 1.000000000000000000 ) ) ;
#142 = DIRECTION ( 'NONE',  ( 1.000000000000000000, 0.0000000000000000000, -0.0000000000000000000 ) ) ;
#143 = PLANE ( 'NONE',  #35 ) ;
#144 = CARTESIAN_POINT ( 'NONE',  ( 0.0000000000000000000, 0.1250000000000000000, 0.0000000000000000000 ) ) ;
#145 = DIRECTION ( 'NONE',  ( 1.000000000000000000, -0.0000000000000000000, 0.0000000000000000000 ) ) ;
#146 = DIRECTION ( 'NONE',  ( 0.0000000000000000000, 0.0000000000000000000, -1.000000000000000000 ) ) ;
#147 = PLANE ( 'NONE',  #32 ) ;
#148 = CARTESIAN_POINT ( 'NONE',  ( 0.0000000000000000000, 0.0000000000000000000, 0.0000000000000000000 ) ) ;
#149 = DIRECTION ( 'NONE',  ( 0.0000000000000000000, -1.000000000000000000, -0.0000000000000000000 ) ) ;
#150 = DIRECTION ( 'NONE',  ( 0.0000000000000000000, 0.0000000000000000000, -1.000000000000000000 ) ) ;
#151 = CARTESIAN_POINT ( 'NONE',  ( 0.0000000000000000000, 0.0000000000000000000, -0.7500000000000001100 ) ) ;
#152 = CARTESIAN_POINT ( 'NONE',  ( 0.7499999999999998900, 0.1250000000000000000, -0.7500000000000001100 ) ) ;
#153 = CARTESIAN_POINT ( 'NONE',  ( 0.7499999999999998900, 0.0000000000000000000, -0.7500000000000001100 ) ) ;
#154 = CARTESIAN_POINT ( 'NONE',  ( 0.0000000000000000000, 0.1250000000000000000, -0.7500000000000001100 ) ) ;
#155 = CARTESIAN_POINT ( 'NONE',  ( 0.7500000000000001100, 0.1250000000000000000, -1.530808498934193000E-017 ) ) ;
#156 = CARTESIAN_POINT ( 'NONE',  ( 0.0000000000000000000, 0.1250000000000000000, 0.0000000000000000000 ) ) ;
#157 = CARTESIAN_POINT ( 'NONE',  ( 0.0000000000000000000, 0.0000000000000000000, 0.0000000000000000000 ) ) ;
#158 = CARTESIAN_POINT ( 'NONE',  ( 0.7500000000000001100, 0.0000000000000000000, -1.530808498934193000E-017 ) ) ;
#159 = FILL_AREA_STYLE_COLOUR ( '', #7 ) ;
#160 = FILL_AREA_STYLE ('',( #159 ) ) ;
#161 = SURFACE_STYLE_FILL_AREA ( #160 ) ;
#162 = SURFACE_SIDE_STYLE ('',( #161 ) ) ;
#163 = SURFACE_STYLE_USAGE ( .BOTH. , #162 ) ;
#164 = PRESENTATION_STYLE_ASSIGNMENT (( #163 ) ) ;
#165 =( LENGTH_UNIT ( ) NAMED_UNIT ( * ) SI_UNIT ( $, .METRE. ) );
#166 =( CONVERSION_BASED_UNIT ( 'INCH', #4 ) LENGTH_UNIT ( ) NAMED_UNIT ( #137 ) );
#167 =( NAMED_UNIT ( * ) PLANE_ANGLE_UNIT ( ) SI_UNIT ( $, .RADIAN. ) );
#168 = MANIFOLD_SOLID_BREP ( 'Boss-Extrude1', #198 ) ;
#169 = PRODUCT_DEFINITION_SHAPE ( 'NONE', 'NONE',  #11 ) ;
#170 = PRODUCT_DEFINITION_CONTEXT ( 'detailed design', #134, 'design' ) ;
#171 = UNCERTAINTY_MEASURE_WITH_UNIT (LENGTH_MEASURE( 1.000000000000000100E-005 ), #186, 'distance_accuracy_value', 'NONE');
#172 = UNCERTAINTY_MEASURE_WITH_UNIT (LENGTH_MEASURE( 1.000000000000000100E-005 ), #196, 'distance_accuracy_value', 'NONE');
#173 = UNCERTAINTY_MEASURE_WITH_UNIT (LENGTH_MEASURE( 1.000000000000000100E-005 ), #166, 'distance_accuracy_value', 'NONE');
#174 = ADVANCED_BREP_SHAPE_REPRESENTATION ( 'Q125F', ( #168, #210 ), #95 ) ;
#175 =( NAMED_UNIT ( * ) PLANE_ANGLE_UNIT ( ) SI_UNIT ( $, .RADIAN. ) );
#176 =( NAMED_UNIT ( * ) SI_UNIT ( $, .STERADIAN. ) SOLID_ANGLE_UNIT ( ) );
#177 = CARTESIAN_POINT ( 'NONE',  ( 0.0000000000000000000, 0.0000000000000000000, 0.0000000000000000000 ) ) ;
#178 = DIRECTION ( 'NONE',  ( 0.0000000000000000000, 0.0000000000000000000, 1.000000000000000000 ) ) ;
#179 = DIRECTION ( 'NONE',  ( 1.000000000000000000, 0.0000000000000000000, 0.0000000000000000000 ) ) ;
#180 = SHAPE_DEFINITION_REPRESENTATION ( #169, #174 ) ;
#181 = APPLICATION_PROTOCOL_DEFINITION ( 'draft international standard', 'automotive_design', 1998, #133 ) ;
#182 = PRODUCT_CONTEXT ( 'NONE', #133, 'mechanical' ) ;
#183 = APPLICATION_PROTOCOL_DEFINITION ( 'draft international standard', 'automotive_design', 1998, #134 ) ;
#184 =( NAMED_UNIT ( * ) SI_UNIT ( $, .STERADIAN. ) SOLID_ANGLE_UNIT ( ) );
#185 =( LENGTH_UNIT ( ) NAMED_UNIT ( * ) SI_UNIT ( $, .METRE. ) );
#186 =( CONVERSION_BASED_UNIT ( 'INCH', #205 ) LENGTH_UNIT ( ) NAMED_UNIT ( #138 ) );
#187 =( NAMED_UNIT ( * ) PLANE_ANGLE_UNIT ( ) SI_UNIT ( $, .RADIAN. ) );
#188 =( NAMED_UNIT ( * ) SI_UNIT ( $, .STERADIAN. ) SOLID_ANGLE_UNIT ( ) );
#189 = FILL_AREA_STYLE_COLOUR ( '', #8 ) ;
#190 = FILL_AREA_STYLE ('',( #189 ) ) ;
#191 = SURFACE_STYLE_FILL_AREA ( #190 ) ;
#192 = SURFACE_SIDE_STYLE ('',( #191 ) ) ;
#193 = SURFACE_STYLE_USAGE ( .BOTH. , #192 ) ;
#194 = PRESENTATION_STYLE_ASSIGNMENT (( #193 ) ) ;
#195 =( LENGTH_UNIT ( ) NAMED_UNIT ( * ) SI_UNIT ( $, .METRE. ) );
#196 =( CONVERSION_BASED_UNIT ( 'INCH', #209 ) LENGTH_UNIT ( ) NAMED_UNIT ( #136 ) );
#197 = AXIS2_PLACEMENT_3D ( 'NONE', #83, #84, #85 ) ;
#198 = CLOSED_SHELL ( 'NONE', ( #24, #25, #26, #27, #9, #28 ) ) ;
#199 = FACE_OUTER_BOUND ( 'NONE', #44, .T. ) ;
#200 = FACE_OUTER_BOUND ( 'NONE', #48, .T. ) ;
#201 = VECTOR ( 'NONE', #88, 39.37007874015748100 ) ;
#202 = VECTOR ( 'NONE', #92, 39.37007874015748100 ) ;
#203 = VECTOR ( 'NONE', #98, 39.37007874015748100 ) ;
#204 = VECTOR ( 'NONE', #101, 39.37007874015748100 ) ;
#205 = LENGTH_MEASURE_WITH_UNIT ( LENGTH_MEASURE( 0.02539999999999999900 ), #185 );
#206 = STYLED_ITEM ( 'NONE', ( #194 ), #174 ) ;
#207 = PRESENTATION_LAYER_ASSIGNMENT (  '', '', ( #206 ) ) ;
#208 = MECHANICAL_DESIGN_GEOMETRIC_PRESENTATION_REPRESENTATION (  '', ( #206 ), #96 ) ;
#209 = LENGTH_MEASURE_WITH_UNIT ( LENGTH_MEASURE( 0.02539999999999999900 ), #195 );
#210 = AXIS2_PLACEMENT_3D ( 'NONE', #177, #178, #179 ) ;
#211 = PRODUCT_DEFINITION_FORMATION_WITH_SPECIFIED_SOURCE ( 'ANY', '', #135, .NOT_KNOWN. ) ;
ENDSEC;
END-ISO-10303-21;
