ISO-10303-21;
HEADER;
FILE_DESCRIPTION (( 'STEP AP214' ),
    '1' );
FILE_NAME ('Q063B.step',
    '2012-04-20T21:02:40',
    ( '' ),
    ( '' ),
    'SwSTEP 2.0',
    'SolidWorks 2012',
    '' );
FILE_SCHEMA (( 'AUTOMOTIVE_DESIGN' ));
ENDSEC;

DATA;
#1 = VECTOR ( 'NONE', #184, 39.37007874015748100 ) ;
#2 = VECTOR ( 'NONE', #193, 39.37007874015748100 ) ;
#3 = LENGTH_MEASURE_WITH_UNIT ( LENGTH_MEASURE( 0.02539999999999999900 ), #95 );
#4 = EDGE_LOOP ( 'NONE', ( #149, #140, #146, #138 ) ) ;
#5 = EDGE_LOOP ( 'NONE', ( #136, #131, #139, #132 ) ) ;
#6 = EDGE_LOOP ( 'NONE', ( #20, #19, #134, #18 ) ) ;
#7 = EDGE_LOOP ( 'NONE', ( #17, #135, #16, #133 ) ) ;
#8 = VERTEX_POINT ( 'NONE', #150 ) ;
#9 = VERTEX_POINT ( 'NONE', #151 ) ;
#10 = VERTEX_POINT ( 'NONE', #152 ) ;
#11 = VERTEX_POINT ( 'NONE', #153 ) ;
#12 = VERTEX_POINT ( 'NONE', #154 ) ;
#13 = VERTEX_POINT ( 'NONE', #155 ) ;
#14 = VERTEX_POINT ( 'NONE', #156 ) ;
#15 = VERTEX_POINT ( 'NONE', #157 ) ;
#16 = ORIENTED_EDGE ( 'NONE', *, *, #39, .F. ) ;
#17 = ORIENTED_EDGE ( 'NONE', *, *, #42, .F. ) ;
#18 = ORIENTED_EDGE ( 'NONE', *, *, #46, .T. ) ;
#19 = ORIENTED_EDGE ( 'NONE', *, *, #36, .T. ) ;
#20 = ORIENTED_EDGE ( 'NONE', *, *, #44, .T. ) ;
#21 = EDGE_LOOP ( 'NONE', ( #137, #145, #147, #148 ) ) ;
#22 = EDGE_LOOP ( 'NONE', ( #144, #142, #143, #141 ) ) ;
#23 = VECTOR ( 'NONE', #181, 39.37007874015748100 ) ;
#24 = VECTOR ( 'NONE', #178, 39.37007874015748100 ) ;
#25 = VECTOR ( 'NONE', #175, 39.37007874015748100 ) ;
#26 = VECTOR ( 'NONE', #164, 39.37007874015748100 ) ;
#27 = FACE_OUTER_BOUND ( 'NONE', #4, .T. ) ;
#28 = CLOSED_SHELL ( 'NONE', ( #48, #49, #50, #51, #35, #52 ) ) ;
#29 = AXIS2_PLACEMENT_3D ( 'NONE', #159, #160, #161 ) ;
#30 = FACE_OUTER_BOUND ( 'NONE', #6, .T. ) ;
#31 = PRODUCT_DEFINITION ( 'UNKNOWN', '', #211, #130 ) ;
#32 = COLOUR_RGB ( '',0.5686274509803921400, 0.5686274509803921400, 0.5882352941176470800 ) ;
#33 = COLOUR_RGB ( '',0.5686274509803921400, 0.5686274509803921400, 0.5882352941176470800 ) ;
#34 = PRODUCT_RELATED_PRODUCT_CATEGORY ( 'part', '', ( #125 ) ) ;
#35 = ADVANCED_FACE ( 'NONE', ( #30 ), #158, .F. ) ;
#36 = EDGE_CURVE ( 'NONE', #10, #13, #162, .T. ) ;
#37 = EDGE_CURVE ( 'NONE', #15, #14, #166, .T. ) ;
#38 = EDGE_CURVE ( 'NONE', #9, #12, #176, .T. ) ;
#39 = EDGE_CURVE ( 'NONE', #12, #14, #179, .T. ) ;
#40 = EDGE_CURVE ( 'NONE', #11, #8, #182, .T. ) ;
#41 = EDGE_CURVE ( 'NONE', #10, #9, #185, .T. ) ;
#42 = EDGE_CURVE ( 'NONE', #8, #9, #188, .T. ) ;
#43 = EDGE_CURVE ( 'NONE', #13, #15, #191, .T. ) ;
#44 = EDGE_CURVE ( 'NONE', #11, #10, #194, .T. ) ;
#45 = EDGE_CURVE ( 'NONE', #13, #12, #197, .T. ) ;
#46 = EDGE_CURVE ( 'NONE', #15, #11, #200, .T. ) ;
#47 = EDGE_CURVE ( 'NONE', #14, #8, #203, .T. ) ;
#48 = ADVANCED_FACE ( 'NONE', ( #27 ), #165, .F. ) ;
#49 = ADVANCED_FACE ( 'NONE', ( #62 ), #209, .F. ) ;
#50 = ADVANCED_FACE ( 'NONE', ( #64 ), #102, .F. ) ;
#51 = ADVANCED_FACE ( 'NONE', ( #65 ), #106, .F. ) ;
#52 = ADVANCED_FACE ( 'NONE', ( #67 ), #110, .T. ) ;
#53 = VECTOR ( 'NONE', #187, 39.37007874015748100 ) ;
#54 =( GEOMETRIC_REPRESENTATION_CONTEXT ( 3 ) GLOBAL_UNCERTAINTY_ASSIGNED_CONTEXT ( ( #81 ) ) GLOBAL_UNIT_ASSIGNED_CONTEXT ( ( #86, #87, #88 ) ) REPRESENTATION_CONTEXT ( 'NONE', 'WORKASPACE' ) );
#55 =( GEOMETRIC_REPRESENTATION_CONTEXT ( 3 ) GLOBAL_UNCERTAINTY_ASSIGNED_CONTEXT ( ( #83 ) ) GLOBAL_UNIT_ASSIGNED_CONTEXT ( ( #96, #97, #98 ) ) REPRESENTATION_CONTEXT ( 'NONE', 'WORKASPACE' ) );
#56 = VECTOR ( 'NONE', #196, 39.37007874015748100 ) ;
#57 = VECTOR ( 'NONE', #199, 39.37007874015748100 ) ;
#58 = VECTOR ( 'NONE', #202, 39.37007874015748100 ) ;
#59 = LENGTH_MEASURE_WITH_UNIT ( LENGTH_MEASURE( 0.02539999999999999900 ), #85 );
#60 = VECTOR ( 'NONE', #205, 39.37007874015748100 ) ;
#61 = AXIS2_PLACEMENT_3D ( 'NONE', #206, #207, #208 ) ;
#62 = FACE_OUTER_BOUND ( 'NONE', #21, .T. ) ;
#63 = AXIS2_PLACEMENT_3D ( 'NONE', #99, #100, #101 ) ;
#64 = FACE_OUTER_BOUND ( 'NONE', #22, .T. ) ;
#65 = FACE_OUTER_BOUND ( 'NONE', #5, .T. ) ;
#66 = AXIS2_PLACEMENT_3D ( 'NONE', #103, #104, #105 ) ;
#67 = FACE_OUTER_BOUND ( 'NONE', #7, .T. ) ;
#68 = AXIS2_PLACEMENT_3D ( 'NONE', #107, #108, #109 ) ;
#69 = STYLED_ITEM ( 'NONE', ( #119 ), #129 ) ;
#70 = AXIS2_PLACEMENT_3D ( 'NONE', #111, #112, #113 ) ;
#71 = PRESENTATION_LAYER_ASSIGNMENT (  '', '', ( #69 ) ) ;
#72 = MECHANICAL_DESIGN_GEOMETRIC_PRESENTATION_REPRESENTATION (  '', ( #69 ), #77 ) ;
#73 = LENGTH_MEASURE_WITH_UNIT ( LENGTH_MEASURE( 0.02539999999999999900 ), #120 );
#74 = STYLED_ITEM ( 'NONE', ( #94 ), #84 ) ;
#75 = PRESENTATION_LAYER_ASSIGNMENT (  '', '', ( #74 ) ) ;
#76 = MECHANICAL_DESIGN_GEOMETRIC_PRESENTATION_REPRESENTATION (  '', ( #74 ), #55 ) ;
#77 =( GEOMETRIC_REPRESENTATION_CONTEXT ( 3 ) GLOBAL_UNCERTAINTY_ASSIGNED_CONTEXT ( ( #82 ) ) GLOBAL_UNIT_ASSIGNED_CONTEXT ( ( #121, #122, #123 ) ) REPRESENTATION_CONTEXT ( 'NONE', 'WORKASPACE' ) );
#78 = VECTOR ( 'NONE', #190, 39.37007874015748100 ) ;
#79 = APPLICATION_CONTEXT ( 'automotive_design' ) ;
#80 = APPLICATION_CONTEXT ( 'automotive_design' ) ;
#81 = UNCERTAINTY_MEASURE_WITH_UNIT (LENGTH_MEASURE( 1.000000000000000100E-005 ), #86, 'distance_accuracy_value', 'NONE');
#82 = UNCERTAINTY_MEASURE_WITH_UNIT (LENGTH_MEASURE( 1.000000000000000100E-005 ), #121, 'distance_accuracy_value', 'NONE');
#83 = UNCERTAINTY_MEASURE_WITH_UNIT (LENGTH_MEASURE( 1.000000000000000100E-005 ), #96, 'distance_accuracy_value', 'NONE');
#84 = ADVANCED_BREP_SHAPE_REPRESENTATION ( 'Q063B', ( #129, #210 ), #54 ) ;
#85 =( LENGTH_UNIT ( ) NAMED_UNIT ( * ) SI_UNIT ( $, .METRE. ) );
#86 =( CONVERSION_BASED_UNIT ( 'INCH', #59 ) LENGTH_UNIT ( ) NAMED_UNIT ( #124 ) );
#87 =( NAMED_UNIT ( * ) PLANE_ANGLE_UNIT ( ) SI_UNIT ( $, .RADIAN. ) );
#88 =( NAMED_UNIT ( * ) SI_UNIT ( $, .STERADIAN. ) SOLID_ANGLE_UNIT ( ) );
#89 = FILL_AREA_STYLE_COLOUR ( '', #33 ) ;
#90 = FILL_AREA_STYLE ('',( #89 ) ) ;
#91 = SURFACE_STYLE_FILL_AREA ( #90 ) ;
#92 = SURFACE_SIDE_STYLE ('',( #91 ) ) ;
#93 = SURFACE_STYLE_USAGE ( .BOTH. , #92 ) ;
#94 = PRESENTATION_STYLE_ASSIGNMENT (( #93 ) ) ;
#95 =( LENGTH_UNIT ( ) NAMED_UNIT ( * ) SI_UNIT ( $, .METRE. ) );
#96 =( CONVERSION_BASED_UNIT ( 'INCH', #3 ) LENGTH_UNIT ( ) NAMED_UNIT ( #127 ) );
#97 =( NAMED_UNIT ( * ) PLANE_ANGLE_UNIT ( ) SI_UNIT ( $, .RADIAN. ) );
#98 =( NAMED_UNIT ( * ) SI_UNIT ( $, .STERADIAN. ) SOLID_ANGLE_UNIT ( ) );
#99 = CARTESIAN_POINT ( 'NONE',  ( 0.2499999999999999700, 0.06250000000000000000, -0.2500000000000000000 ) ) ;
#100 = DIRECTION ( 'NONE',  ( -1.000000000000000000, 0.0000000000000000000, 1.365923996832131600E-016 ) ) ;
#101 = DIRECTION ( 'NONE',  ( 1.365923996832131600E-016, 0.0000000000000000000, 1.000000000000000000 ) ) ;
#102 = PLANE ( 'NONE',  #66 ) ;
#103 = CARTESIAN_POINT ( 'NONE',  ( 0.0000000000000000000, 0.06250000000000000000, -0.2500000000000000000 ) ) ;
#104 = DIRECTION ( 'NONE',  ( 0.0000000000000000000, 0.0000000000000000000, 1.000000000000000000 ) ) ;
#105 = DIRECTION ( 'NONE',  ( 1.000000000000000000, 0.0000000000000000000, -0.0000000000000000000 ) ) ;
#106 = PLANE ( 'NONE',  #68 ) ;
#107 = CARTESIAN_POINT ( 'NONE',  ( 0.0000000000000000000, 0.06250000000000000000, 0.0000000000000000000 ) ) ;
#108 = DIRECTION ( 'NONE',  ( 1.000000000000000000, -0.0000000000000000000, 0.0000000000000000000 ) ) ;
#109 = DIRECTION ( 'NONE',  ( 0.0000000000000000000, 0.0000000000000000000, -1.000000000000000000 ) ) ;
#110 = PLANE ( 'NONE',  #70 ) ;
#111 = CARTESIAN_POINT ( 'NONE',  ( 0.0000000000000000000, 0.0000000000000000000, 0.0000000000000000000 ) ) ;
#112 = DIRECTION ( 'NONE',  ( 0.0000000000000000000, -1.000000000000000000, -0.0000000000000000000 ) ) ;
#113 = DIRECTION ( 'NONE',  ( 0.0000000000000000000, 0.0000000000000000000, -1.000000000000000000 ) ) ;
#114 = FILL_AREA_STYLE_COLOUR ( '', #32 ) ;
#115 = FILL_AREA_STYLE ('',( #114 ) ) ;
#116 = SURFACE_STYLE_FILL_AREA ( #115 ) ;
#117 = SURFACE_SIDE_STYLE ('',( #116 ) ) ;
#118 = SURFACE_STYLE_USAGE ( .BOTH. , #117 ) ;
#119 = PRESENTATION_STYLE_ASSIGNMENT (( #118 ) ) ;
#120 =( LENGTH_UNIT ( ) NAMED_UNIT ( * ) SI_UNIT ( $, .METRE. ) );
#121 =( CONVERSION_BASED_UNIT ( 'INCH', #73 ) LENGTH_UNIT ( ) NAMED_UNIT ( #126 ) );
#122 =( NAMED_UNIT ( * ) PLANE_ANGLE_UNIT ( ) SI_UNIT ( $, .RADIAN. ) );
#123 =( NAMED_UNIT ( * ) SI_UNIT ( $, .STERADIAN. ) SOLID_ANGLE_UNIT ( ) );
#124 = DIMENSIONAL_EXPONENTS ( 1.000000000000000000, 0.0000000000000000000, 0.0000000000000000000, 0.0000000000000000000, 0.0000000000000000000, 0.0000000000000000000, 0.0000000000000000000 ) ;
#125 = PRODUCT ( 'Q063B', 'Q063B', '', ( #172 ) ) ;
#126 = DIMENSIONAL_EXPONENTS ( 1.000000000000000000, 0.0000000000000000000, 0.0000000000000000000, 0.0000000000000000000, 0.0000000000000000000, 0.0000000000000000000, 0.0000000000000000000 ) ;
#127 = DIMENSIONAL_EXPONENTS ( 1.000000000000000000, 0.0000000000000000000, 0.0000000000000000000, 0.0000000000000000000, 0.0000000000000000000, 0.0000000000000000000, 0.0000000000000000000 ) ;
#128 = PRODUCT_DEFINITION_SHAPE ( 'NONE', 'NONE',  #31 ) ;
#129 = MANIFOLD_SOLID_BREP ( 'Boss-Extrude1', #28 ) ;
#130 = PRODUCT_DEFINITION_CONTEXT ( 'detailed design', #80, 'design' ) ;
#131 = ORIENTED_EDGE ( 'NONE', *, *, #40, .F. ) ;
#132 = ORIENTED_EDGE ( 'NONE', *, *, #37, .T. ) ;
#133 = ORIENTED_EDGE ( 'NONE', *, *, #38, .F. ) ;
#134 = ORIENTED_EDGE ( 'NONE', *, *, #43, .T. ) ;
#135 = ORIENTED_EDGE ( 'NONE', *, *, #47, .F. ) ;
#136 = ORIENTED_EDGE ( 'NONE', *, *, #47, .T. ) ;
#137 = ORIENTED_EDGE ( 'NONE', *, *, #38, .T. ) ;
#138 = ORIENTED_EDGE ( 'NONE', *, *, #40, .T. ) ;
#139 = ORIENTED_EDGE ( 'NONE', *, *, #46, .F. ) ;
#140 = ORIENTED_EDGE ( 'NONE', *, *, #41, .F. ) ;
#141 = ORIENTED_EDGE ( 'NONE', *, *, #45, .T. ) ;
#142 = ORIENTED_EDGE ( 'NONE', *, *, #37, .F. ) ;
#143 = ORIENTED_EDGE ( 'NONE', *, *, #43, .F. ) ;
#144 = ORIENTED_EDGE ( 'NONE', *, *, #39, .T. ) ;
#145 = ORIENTED_EDGE ( 'NONE', *, *, #45, .F. ) ;
#146 = ORIENTED_EDGE ( 'NONE', *, *, #44, .F. ) ;
#147 = ORIENTED_EDGE ( 'NONE', *, *, #36, .F. ) ;
#148 = ORIENTED_EDGE ( 'NONE', *, *, #41, .T. ) ;
#149 = ORIENTED_EDGE ( 'NONE', *, *, #42, .T. ) ;
#150 = CARTESIAN_POINT ( 'NONE',  ( 0.0000000000000000000, 0.0000000000000000000, 0.0000000000000000000 ) ) ;
#151 = CARTESIAN_POINT ( 'NONE',  ( 0.2500000000000000000, 0.0000000000000000000, -1.530808498934191500E-017 ) ) ;
#152 = CARTESIAN_POINT ( 'NONE',  ( 0.2500000000000000000, 0.06250000000000000000, -1.530808498934191500E-017 ) ) ;
#153 = CARTESIAN_POINT ( 'NONE',  ( 0.0000000000000000000, 0.06250000000000000000, 0.0000000000000000000 ) ) ;
#154 = CARTESIAN_POINT ( 'NONE',  ( 0.2499999999999999700, 0.0000000000000000000, -0.2500000000000000000 ) ) ;
#155 = CARTESIAN_POINT ( 'NONE',  ( 0.2499999999999999700, 0.06250000000000000000, -0.2500000000000000000 ) ) ;
#156 = CARTESIAN_POINT ( 'NONE',  ( 0.0000000000000000000, 0.0000000000000000000, -0.2500000000000000000 ) ) ;
#157 = CARTESIAN_POINT ( 'NONE',  ( 0.0000000000000000000, 0.06250000000000000000, -0.2500000000000000000 ) ) ;
#158 = PLANE ( 'NONE',  #29 ) ;
#159 = CARTESIAN_POINT ( 'NONE',  ( 0.0000000000000000000, 0.06250000000000000000, 0.0000000000000000000 ) ) ;
#160 = DIRECTION ( 'NONE',  ( 0.0000000000000000000, -1.000000000000000000, -0.0000000000000000000 ) ) ;
#161 = DIRECTION ( 'NONE',  ( 0.0000000000000000000, 0.0000000000000000000, -1.000000000000000000 ) ) ;
#162 = LINE ( 'NONE', #163, #26 ) ;
#163 = CARTESIAN_POINT ( 'NONE',  ( 0.2499999999999999700, 0.06250000000000000000, -0.2500000000000000000 ) ) ;
#164 = DIRECTION ( 'NONE',  ( -1.365923996832131600E-016, -0.0000000000000000000, -1.000000000000000000 ) ) ;
#165 = PLANE ( 'NONE',  #61 ) ;
#166 = LINE ( 'NONE', #174, #25 ) ;
#167 = CARTESIAN_POINT ( 'NONE',  ( 0.0000000000000000000, 0.0000000000000000000, 0.0000000000000000000 ) ) ;
#168 = DIRECTION ( 'NONE',  ( 0.0000000000000000000, 0.0000000000000000000, 1.000000000000000000 ) ) ;
#169 = DIRECTION ( 'NONE',  ( 1.000000000000000000, 0.0000000000000000000, 0.0000000000000000000 ) ) ;
#170 = SHAPE_DEFINITION_REPRESENTATION ( #128, #84 ) ;
#171 = APPLICATION_PROTOCOL_DEFINITION ( 'draft international standard', 'automotive_design', 1998, #79 ) ;
#172 = PRODUCT_CONTEXT ( 'NONE', #79, 'mechanical' ) ;
#173 = APPLICATION_PROTOCOL_DEFINITION ( 'draft international standard', 'automotive_design', 1998, #80 ) ;
#174 = CARTESIAN_POINT ( 'NONE',  ( 0.0000000000000000000, 0.06250000000000000000, -0.2500000000000000000 ) ) ;
#175 = DIRECTION ( 'NONE',  ( -0.0000000000000000000, -1.000000000000000000, -0.0000000000000000000 ) ) ;
#176 = LINE ( 'NONE', #177, #24 ) ;
#177 = CARTESIAN_POINT ( 'NONE',  ( 0.2499999999999999700, 0.0000000000000000000, -0.2500000000000000000 ) ) ;
#178 = DIRECTION ( 'NONE',  ( -1.365923996832131600E-016, -0.0000000000000000000, -1.000000000000000000 ) ) ;
#179 = LINE ( 'NONE', #180, #23 ) ;
#180 = CARTESIAN_POINT ( 'NONE',  ( 0.0000000000000000000, 0.0000000000000000000, -0.2500000000000000000 ) ) ;
#181 = DIRECTION ( 'NONE',  ( -1.000000000000000000, -0.0000000000000000000, -0.0000000000000000000 ) ) ;
#182 = LINE ( 'NONE', #183, #1 ) ;
#183 = CARTESIAN_POINT ( 'NONE',  ( 0.0000000000000000000, 0.06250000000000000000, 0.0000000000000000000 ) ) ;
#184 = DIRECTION ( 'NONE',  ( -0.0000000000000000000, -1.000000000000000000, -0.0000000000000000000 ) ) ;
#185 = LINE ( 'NONE', #186, #53 ) ;
#186 = CARTESIAN_POINT ( 'NONE',  ( 0.2500000000000000000, 0.06250000000000000000, -1.530808498934191500E-017 ) ) ;
#187 = DIRECTION ( 'NONE',  ( -0.0000000000000000000, -1.000000000000000000, -0.0000000000000000000 ) ) ;
#188 = LINE ( 'NONE', #189, #78 ) ;
#189 = CARTESIAN_POINT ( 'NONE',  ( 0.2500000000000000000, 0.0000000000000000000, -1.530808498934191500E-017 ) ) ;
#190 = DIRECTION ( 'NONE',  ( 1.000000000000000000, -0.0000000000000000000, -6.123233995736766000E-017 ) ) ;
#191 = LINE ( 'NONE', #192, #2 ) ;
#192 = CARTESIAN_POINT ( 'NONE',  ( 0.0000000000000000000, 0.06250000000000000000, -0.2500000000000000000 ) ) ;
#193 = DIRECTION ( 'NONE',  ( -1.000000000000000000, -0.0000000000000000000, -0.0000000000000000000 ) ) ;
#194 = LINE ( 'NONE', #195, #56 ) ;
#195 = CARTESIAN_POINT ( 'NONE',  ( 0.2500000000000000000, 0.06250000000000000000, -1.530808498934191500E-017 ) ) ;
#196 = DIRECTION ( 'NONE',  ( 1.000000000000000000, -0.0000000000000000000, -6.123233995736766000E-017 ) ) ;
#197 = LINE ( 'NONE', #198, #57 ) ;
#198 = CARTESIAN_POINT ( 'NONE',  ( 0.2499999999999999700, 0.06250000000000000000, -0.2500000000000000000 ) ) ;
#199 = DIRECTION ( 'NONE',  ( -0.0000000000000000000, -1.000000000000000000, -0.0000000000000000000 ) ) ;
#200 = LINE ( 'NONE', #201, #58 ) ;
#201 = CARTESIAN_POINT ( 'NONE',  ( 0.0000000000000000000, 0.06250000000000000000, 0.0000000000000000000 ) ) ;
#202 = DIRECTION ( 'NONE',  ( -0.0000000000000000000, -0.0000000000000000000, 1.000000000000000000 ) ) ;
#203 = LINE ( 'NONE', #204, #60 ) ;
#204 = CARTESIAN_POINT ( 'NONE',  ( 0.0000000000000000000, 0.0000000000000000000, 0.0000000000000000000 ) ) ;
#205 = DIRECTION ( 'NONE',  ( -0.0000000000000000000, -0.0000000000000000000, 1.000000000000000000 ) ) ;
#206 = CARTESIAN_POINT ( 'NONE',  ( 0.2500000000000000000, 0.06250000000000000000, -1.530808498934191500E-017 ) ) ;
#207 = DIRECTION ( 'NONE',  ( -6.123233995736766000E-017, 0.0000000000000000000, -1.000000000000000000 ) ) ;
#208 = DIRECTION ( 'NONE',  ( -1.000000000000000000, 0.0000000000000000000, 6.123233995736766000E-017 ) ) ;
#209 = PLANE ( 'NONE',  #63 ) ;
#210 = AXIS2_PLACEMENT_3D ( 'NONE', #167, #168, #169 ) ;
#211 = PRODUCT_DEFINITION_FORMATION_WITH_SPECIFIED_SOURCE ( 'ANY', '', #125, .NOT_KNOWN. ) ;
ENDSEC;
END-ISO-10303-21;
